Oops, an error
Loading. Please wait.

Flesh Without Blood bass

version 1
version 1

Whole song

by Grimes
1,121 views 3 this week
2 commentsread comments
1 2 3 4 5
x 3
add to favorites
×
Save as Personal and add changes to this tab that will be seen only by you. Learn more ›
×
You can save this tab as Personal to edit and correct it or add notes. All changes will be seen only by you. Learn more »
launch autoscroll
font size
0
reset
guitar tuner
edit
Autoscroll
slow
fast
+/-
esc
set tempo
stop
Author
Difficulty
-------------------------------------------------------------------------------
                             FLESH WITHOUT BLOOD - Grimes
-------------------------------------------------------------------------------
Tabbed by: cesare_moon
E-mail: 

Artist: Grimes
Album: Art Angels

Tuning: EADG

Bass enters at 00.03

Intro / Verse / Pre-Chorus / Chorus / Bridge

G|---------------------------------------------------------------------------|
D|---------------------------------------------------------------------------|
A|----------------6-6-6-6-6-6-6-6--------------------------------------------|
E|4-4-4-4-4-4-4-4-----------------6-6-6-6-6-6-6-6-6-6-6-6-6-6-6-6------------|

Intro
Verse 1
Pre-Chorus
Chorus
Verse 2
Pre-Chorus
Bridge
Chorus

Thank you :)

| /  slide up
| \  slide down
| h  hammer-on
| p  pull-off
| ~  vibrato
| +  harmonic
| x  Mute note
===============================================================================

            
            
Suggest correction
Creating personal tab
Creating personal tab
You can edit any tab online and save it as your Personal.

You can edit, replace or remove any tab part or add personal notes – all changes will be seen only by you.

Personal tabs can be accessed anytime from any device, even offline.
Learn more »
Give kudos to tab author, rate the tab!
1 2 3 4 5
comments
print report bad tab
2 comments total.
0 reply
devcat13 10 Feb 12, 2016 03:31 PM

it just doesn't sound right. maybe the tuning's off? I think it would be a great tab if you figured out the notes

0 reply
devcat13 10 Feb 12, 2016 03:34 PM

G|---------------------------------------------------------------------------|
D|---------------------------------------------------------------------------|
A|----------------6-6-6-6-6-6-6-6--------------------------------------------|
E|4-4-4-4-4-4-4-4-----------------6-6-6-6-6-6-6-6-6-6-6-6-6-6-6-6------------|

guest
You may want to rate the tab now too:
select rating
Wanna post a correction for this tab? Suggest correction