Oops, an error
Loading. Please wait.

Genesis tab

by Grimes
1,570 views 3 this week
no commentswrite comment
1 2 3 4 5
x 4
add to favorites
×
Save as Personal and add changes to this tab that will be seen only by you. Learn more ›
×
You can save this tab as Personal to edit and correct it or add notes. All changes will be seen only by you. Learn more »
launch autoscroll
font size
0
reset
how to read this tab
guitar tuner
edit
Autoscroll
slow
fast
+/-
esc
set tempo
stop
Capo 1st fret


[Intro]

    F               Am               C                 F
e|----------------|----------------|-----------------|-----------------|
B|----------------|----------------|-----------------|-----------------|
G|----------------|----------------|-----------------|-----------------|
D|-----3----3---3-|-----7----7---7-|-----10---10--10-|-----3----3---3--| x8
A|----------------|----------------|-----------------|-----------------|
E|--1----1----1---|-/5----5----5---|-/8----8----8----|-\1----1----1----|


[Verse 1]

   F              Am          C            F
My heart, I never be, I never see, I never know
   F                  Am                C                F
Oh heart, and then it falls, and then I fall, and then I know
   F              Am          C            F
My heart, I never be, I never see, I never know
   F                  Am                C                F
Oh heart, and then it falls, and then I fall, and then I know


[Verse 2]

          N.C.
My heart, I never be, I never see, I never know
N.C.
Oh heart, and then it falls, and then I fall, and then I know
   F              Am          C            F
My heart, I never be, I never see, I never know
          N.C.
Oh heart, and then it falls, and then I fall, and then I know


[Pre-Chorus 1]

   F  Am  C  F
My               
   F  Am  C  F
My               
   F  Am        C        F
My    ever see, ever be, ever know my heart 
   F  Am        C        F
My    ever see, ever be, ever know my heart 


[Chorus 1]

e|----------1-----------------------------1-3-1------------------------------| |
B|------1-3---3-1---------------------1-3-------3-1--------------------------| |
G|----2-----------2-----------------0---------------0------------------------| |
D|--3---------------3--------------------------------------------------------| |
A|---------------------------------------------------------------------------| |
E|---------------------------------------------------------------------------| |
                    Home and I know,                playing the deck above     |
                                                                               | x2
e|----------1----------------------------------1-3-1-------------------------| |
B|------1-3---3-1--------------------------1-3-------3-1---------------------| |
G|----2-----------2----------------------0---------------0-------------------| |
D|--3---------------3--------------------------------------------------------| |
A|---------------------------------------------------------------------------| |
E|---------------------------------------------------------------------------| |
                    It's always different,               I am the one in love  |


F   Am              C
    Home and I know
F
Playing the deck above
F   Am                    C
    It's always different
F
I am the one in love


F   Am              C
    Home and I know
F
Playing the deck above
F   Am                    C
    It's always different
F
I am the one in love


[Verse 2]

    F               Am               C                 F
e|----------------|----------------|-----------------|-----------------|
B|----------------|----------------|-----------------|-----------------|
G|----------------|----------------|-----------------|-----------------|
D|-----3----3---3-|-----7----7---7-|-----10---10--10-|-----3----3---3--|
A|----------------|----------------|-----------------|-----------------|
E|--1----1----1---|-/5----5----5---|-/8----8----8----|-\1----1----1----|

   F              Am          C            F
My heart, I never be, I never see, I never know
   F                  Am                C                F
Oh heart, and then it falls, and then I fall, and then I know
   F              Am          C            F
My heart, I never be, I never see, I never know
   F                  Am                C                F
Oh heart, and then it falls, and then I fall, and then I know


[Pre-Chorus 2]

F  Am        C        F
   Ever see, ever be, ever know my heart 
F  Am        C        F
   Ever see, ever be, ever know my heart        


[Chorus 2]

e|----------1-----------------------------1-3-1------------------------------| |
B|------1-3---3-1---------------------1-3-------3-1--------------------------| |
G|----2-----------2-----------------0---------------0------------------------| |
D|--3---------------3--------------------------------------------------------| |
A|---------------------------------------------------------------------------| |
E|---------------------------------------------------------------------------| |
                    Home and I know,                playing the deck above     |
                                                                               | x4
e|----------1----------------------------------1-3-1-------------------------| |
B|------1-3---3-1--------------------------1-3-------3-1---------------------| |
G|----2-----------2----------------------0---------------0-------------------| |
D|--3---------------3--------------------------------------------------------| |
A|---------------------------------------------------------------------------| |
E|---------------------------------------------------------------------------| |
                    It's always different,               I am the one in love  |


[Outro]

e|----------1-----------------------------1-3-1------------------------------| 
B|------1-3---3-1---------------------1-3-------3-1--------------------------| 
G|----2-----------2-----------------0---------------0------------------------| 
D|--3---------------3--------------------------------------------------------| x2
A|---------------------------------------------------------------------------| 
E|---------------------------------------------------------------------------| 


e|----------1----------------------------------------------------------------| 
B|------1-3---3-1------------------------------------------------------------| 
G|----2-----------2----------------------------------------------------------| 
D|--3---------------3--------------------------------------------------------| 
A|---------------------------------------------------------------------------| 
E|---------------------------------------------------------------------------| 

            
            
Suggest correction
Creating personal tab
Creating personal tab
You can edit any tab online and save it as your Personal.

You can edit, replace or remove any tab part or add personal notes – all changes will be seen only by you.

Personal tabs can be accessed anytime from any device, even offline.
Learn more »
comments
print report bad tab
guest
You may want to rate the tab now too:
select rating
Wanna post a correction for this tab? Suggest correction