Oops, an error
Loading. Please wait.

Unknown Track tab

by Grimes
190 views 1 this week
no commentswrite comment
1 2 3 4 5
3 more votes to show rating
add to favorites
×
Save as Personal and add changes to this tab that will be seen only by you. Learn more ›
×
You can save this tab as Personal to edit and correct it or add notes. All changes will be seen only by you. Learn more »
launch autoscroll
font size
0
reset
how to read this tab
guitar tuner
edit
Autoscroll
slow
fast
+/-
esc
set tempo
stop
Author
Difficulty
[Intro]
e|-----5-----5-----5-----5-|----5-----5-----5-----5-|
B|---7-----7-----7-----7---|--7-----7-----7-----7---|
G|-7-----7-----7-----7-----|6-----6-----6-----6-----|
D|-------------------------|------------------------| (x2)
A|-------------------------|------------------------|
E|-------------------------|------------------------|

[Verse 1]
e|-----5-----5-----5-----5-|----5-----5-----5-----5-|----5-----5-----5-----5-|----5-----5-----5-----5-|
B|---7-----7-----7-----7---|--7-----7-----7-----7---|--7-----7-----7-----7---|--7-----7-----7-----7---|
G|-7-----7-----7-----7-----|7-----7-----7-----7-----|6-----6-----6-----6-----|6-----6-----6-----6-----|
D|-------------------------|------------------------|------------------------|------------------------|
A|-------------------------|------------------------|------------------------|------------------------|
E|-------------------------|------------------------|------------------------|------------------------|

Here are the pillars
I called
Far away a killer
I know
Oh
I see
I see
I see
Ohhhh aaaaah

[Verse 2]
e|-5-----5-----5-----5-----|3-----3-----3-----3-----|5-----5-----5-----5-----|3-----3-----3-----3-----|
B|-----6-----6-----6-----6-|----6-----6-----6-----6-|----5-----5-----5-----5-|----5-----5-----5-----5-|
G|---5-----5-----5-----5---|--7-----7-----7-----7---|--6-----6-----6-----6---|--5-----5-----5-----5---|
D|-------------------------|------------------------|------------------------|------------------------|
A|-------------------------|------------------------|------------------------|------------------------|
E|-------------------------|------------------------|------------------------|------------------------|

Ahhh oh oh oh
He cries
He cries and
Oh oh oh
It died
It died and
Oh oh oh
It cries
It cries and
Oh oh oh
It dies
It dies

[Bridge]
e|-----5-----5-----5-----5-|----5-----5-----5-----5-|
B|---7-----7-----7-----7---|--7-----7-----7-----7---|
G|-7-----7-----7-----7-----|6-----6-----6-----6-----|
D|-------------------------|------------------------| (x2)
A|-------------------------|------------------------|
E|-------------------------|------------------------|

Aaah

[Chorus]
e|-----5-----5-----5-----5-|----5-----5-----5-----5-|----5-----5-----5-----5-|----5-----5-----5-----5-|
B|---7-----7-----7-----7---|--7-----7-----7-----7---|--7-----7-----7-----7---|--7-----7-----7-----7---|
G|-7-----7-----7-----7-----|7-----7-----7-----7-----|6-----6-----6-----6-----|6-----6-----6-----6-----|
D|-------------------------|------------------------|------------------------|------------------------|
A|-------------------------|------------------------|------------------------|------------------------|
E|-------------------------|------------------------|------------------------|------------------------|

Here my pillars
I called
Are they killers?
I know
I see
I see
I see

[Outro]
e|---5--------------|---3--------------|---5--------------|---3--------------|
B|---6--------------|---6--------------|---5--------------|---5--------------|
G|---5--------------|---7--------------|---6--------------|---5--------------|
D|------------------|------------------|------------------|------------------|
A|------------------|------------------|------------------|------------------| 
E|------------------|------------------|------------------|------------------|

It cries
It cries and
Oh oh oh oh
It dies
It dies and
Oh oh oh
He cries
He cries
Oh oh oh oh
He dies
He dies

            
            
Suggest correction
Creating personal tab
Creating personal tab
You can edit any tab online and save it as your Personal.

You can edit, replace or remove any tab part or add personal notes – all changes will be seen only by you.

Personal tabs can be accessed anytime from any device, even offline.
Learn more »
Give kudos to tab author, rate the tab!
1 2 3 4 5
comments
print report bad tab
guest
You may want to rate the tab now too:
select rating
Wanna post a correction for this tab? Suggest correction