Oops, an error
Loading. Please wait.

Unknown Track ukulele

by Grimes
1,568 views 3 this week
no commentswrite comment
1 2 3 4 5
x 6
add to favorites
×
Save as Personal and add changes to this tab that will be seen only by you. Learn more ›
×
You can save this tab as Personal to edit and correct it or add notes. All changes will be seen only by you. Learn more »
launch autoscroll
font size
0
reset
transpose
0
reset
simplify chords
display chords
guitar tuner
edit
Autoscroll
slow
fast
+/-
esc
set tempo
stop
Author
Difficulty
Strumming
There is no strumming pattern for this song yet. and get +5 IQ
--------------------------------------------------------------------------------------------------
                                      UNKNOWN TRACK - Grimes
--------------------------------------------------------------------------------------------------

https://www.youtube.com/watch?v=uWFTyamEZrU

(Apparently she recorded this on a street corner. Really beautiful.)

INTRO (play twice):

A|-----0-----0-----0-----0-----0-----0-----0-----0-|
E|---2-----2-----2-----2-----2-----2-----2-----2---|
C|-2-----2-----2-----2-----1-----1-----1-----1-----|
G|-------------------------------------------------| 


VERSE 1 (play throughout):

A|-----0-----0-----0-----0-----0-----0-----0-----0-|
E|---2-----2-----2-----2-----2-----2-----2-----2---|
C|-2-----2-----2-----2-----2-----2-----2-----2-----|
G|-------------------------------------------------| 

A|-----0-----0-----0-----0-----0-----0-----0-----0-|
E|---2-----2-----2-----2-----2-----2-----2-----2---|
C|-1-----1-----1-----1-----1-----1-----1-----1-----|
G|-------------------------------------------------|

Here upon the pillar
I go
Far away the killer
I know
Why did, I did
I did, oh ah

(play once, then throughout next verse):

A|-0-----0-----0-----0-----------------------------0-----0-----0-----0-----------------------------|
E|-----1-----1-----1-----1-----1-----1-----1-----1-----0-----0-----0-----0-----0-----0-----0-----0-|
C|---0-----0-----0-----0-----2-----2-----2-----2-----1-----1-----1-----1-----0-----0-----0-----0---|
G|-------------------------0-----0-----0-----0-----------------------------0-----0-----0-----0-----|

Oh woah oh oh ohh
It cries, it cries and
Oh woah oh oh ohh
It dies, it dies and

Oh woah oh oh ohh
It cries, it cries and
Oh woah oh oh ohh
It dies, it dies

(play once, then throughout next verse):

A|-0-----0-----0-----0-----0------0-----0----|
E|-----2-----2-----2-----2-----2-----2-----2-|
C|---2-----2-----2-----2-----1-----1-----1---|
G|-------------------------------------------|

Ah

Here on a pillar, I go
I'm that killer, I know
I see, I see
I see

(pluck each chord once, then begin to strum):

F Dm A C6

Oh woah oh oh ohh
It cries, it cries and
Oh woah oh oh ohh
It dies, it dies and

Oh woah oh oh ohh
It cries, it cries and
Oh woah oh oh ohh
It dies, it dies

end on F


            
            
Suggest correction
Creating personal tab
Creating personal tab
You can edit any tab online and save it as your Personal.

You can edit, replace or remove any tab part or add personal notes – all changes will be seen only by you.

Personal tabs can be accessed anytime from any device, even offline.
Learn more »
comments
print report bad tab
guest
You may want to rate the tab now too:
select rating
Wanna post a correction for this tab? Suggest correction