Oops, an error
Loading. Please wait.

Cheerleader bass

version 1
version 1

Whole song

Interactive

517 views 18 this week
no commentswrite comment
1 2 3 4 5
x 3
add to favorites
×
Save as Personal and add changes to this tab that will be seen only by you. Learn more ›
×
You can save this tab as Personal to edit and correct it or add notes. All changes will be seen only by you. Learn more »
launch autoscroll
font size
0
reset
guitar tuner
edit
Autoscroll
slow
fast
+/-
esc
set tempo
stop
Author
[Intro]

G|--------------------------------------------------|
D|----18-----18-------16----16-------15-----15------|    
A|-16----16-----16-14----14----14-11----11-----11/--|    8x
E|--------------------------------------------------|

Play this 8x, ends at 1:01, it's also part of the 1st verse.

[Chorus]

G|---------------------------------------|
D|---------------------------------------|
A|-16--16-16-16-16-16-14--14-14-14-14-14-|
E|---------------------------------------|

G|--------------------------------------------------------------------------------------------------------|
D|----------------------9-11-13-------------------9-11-13----------------------9-11-13--------------------|
A|-11--11-11--11--11-11---------9--9-9--9--9-9-11---------11--11-11--11--11-11---------9--9-9--9--9-9/13\-|
E|--------------------------------------------------------------------------------------------------------|

G|-----------------------------------------------------------|
D|-------------------------9-11-13-------------------9-11-13-|
A|-11--11-11--11--11-11------------9--9-9--9--9-9-11---------|
E|----------------------11-----------------------------------|

G|--------------------------------------------------|
D|-------------------------9-11-13------------------|    
A|-11--11-11--11--11-11-----------9--9-9--9--9-9/13-|
E|----------------------11--------------------------|

Ends at 1:48.

[Verse]

G|--------------------------------------------------|
D|----18-----18-------16----16-------15-----15------|    
A|-16----16-----16-14----14----14-11----11-----11/--|    5x
E|--------------------------------------------------|

This time play this only 5x.

[Chorus]

G|---------------------------------------|
D|---------------------------------------|
A|-16--16-16-16-16-16-14--14-14-14-14-14-|
E|---------------------------------------|

G|--------------------------------------------------------------------------------------------------------|
D|----------------------9-11-13-------------------9-11-13----------------------9-11-13--------------------|
A|-11--11-11--11--11-11---------9--9-9--9--9-9-11---------11--11-11--11--11-11---------9--9-9--9--9-9/13\-|
E|--------------------------------------------------------------------------------------------------------|

G|-----------------------------------------------------------|
D|-------------------------9-11-13-------------------9-11-13-|
A|-11--11-11--11--11-11------------9--9-9--9--9-9-11---------|
E|----------------------11-----------------------------------|

G|--------------------------------------------------|
D|-------------------------9-11-13------------------|    
A|-11--11-11--11--11-11-----------9--9-9--9--9-9/13-|
E|----------------------11--------------------------|

This part ends at 3:23


[Outro]

G|---------------------------------------------------------------------------|
D|---------------------------------------------------------------------------|
A|---------------------------------------------------------------------------|
E|-7---7---4---4---9---9---9---9---7---7---4---4---9---9---9---9---9---14----|
Loop this to 4:14 and stop.


G|---------------|
D|---------------|
A|---------------|
E|-7---7---4---4-|

Play only these 4 notes at 4:23 and stop. If you want to stop. Or can you keep playing. Till the end of your
life. Play the same 2 notes till you die.

Please give some feedback in the comments!  BASS POWER FTW!



************************************

| /   Slide up
| \   Slide down

************************************

            
            
Suggest correction
Creating personal tab
Creating personal tab
You can edit any tab online and save it as your Personal.

You can edit, replace or remove any tab part or add personal notes – all changes will be seen only by you.

Personal tabs can be accessed anytime from any device, even offline.
Learn more »
Give kudos to tab author, rate the tab!
1 2 3 4 5
comments
print report bad tab
guest
You may want to rate the tab now too:
select rating
Wanna post a correction for this tab? Suggest correction