Oops, an error
Loading. Please wait.

Deep Blue Sea tab

version 2
version 2

Whole song

Interactive

24,468 views 24 this week
1 commentread comment
1 2 3 4 5
x 8
add to favorites
×
Save as Personal and add changes to this tab that will be seen only by you. Learn more ›
×
You can save this tab as Personal to edit and correct it or add notes. All changes will be seen only by you. Learn more »
launch autoscroll
font size
0
reset
how to read this tab
guitar tuner
edit
Autoscroll
slow
fast
+/-
esc
set tempo
stop
=================================================================
DEEP BLUE SEA - GRIZZLY BEAR
=================================================================

Tabbed by Ben Chen
July 25, 2009

Also based on the ATP performance. Similar to the one
already posted but with a little more detail on the
extra goodies in the performance.

Capo 3rd fret, standard tuning.


e|--x----x----x---x-----------x---------------x--------|
B|--x----x----x---x----------(7)--------------x--------|
G|--x----x----x---x-----------6---------------x--------|
D|--6----7----6---6-----------4---------------6--------|
A|--2----3----2---5-----------4---------------2--------|
E|--0----0----0---0-----------5---------------0--------|

    Deep blue sea darlin on a deep, deep blue sea
    deep blue sea darlin on a deep, deep blue sea

e|--x-------------x-----------|
B|-(7)------------x-----------|
G|--6-------------x-----------|
D|--4-------------6-----------|
A|--4-------------2-----------|
E|--5-------------0-----------|

       and it was mamma
       that got   drowned in

e|--x--------------x---------0-x-0-x-0-x-|
B|-(7)------------(9)--------7-7-0-7-7-7-|
G|--6--------------8---------6-6-6-6-6-6-|
D|--4--------------6---------4-4-4-4-4-4-|
A|--4--------------6---------4-4-4-4-4-4-|
E|--5--------------7---------5-5-5-5-5-5-|

       out in that deep blue sea

e|--x-------x---------------|
B|-(9)-----(7)--------------|
G|--8-------6---------------|
D|--6-------4---------------|
A|--6-------4---------------|
E|--7-------5---------------|

    Ohh ohh ohh oh oh oh oh       

e|------4-4-----4-------4-4-----4---------4------------|
B|------0-0-----0-------0-0-----0---------0----0-------|
G|------4-4-----4-------4-4-----4---------4----4-------|
D|------x-------x-------x-------x---------x----x-------|
A|------2-------2-------2-------2-------2------2-------|
E|--0-------0-------0-------0-------0---0---0----------|

    Ohhhh

e|--------4-------4-------4-----4---------4------------|
B|------0-0-----0-0-----0-0-----0---------0----0-------|
G|------4-4-----4-4-----4-4-----4---------4----4-------|
D|------x-------x-------x-------x---------x----x-------|
A|------2-------2-------2-------2-------2------2-------|
E|--0-------0-------0-------0-------0---0---0----------|

e|------4-4-----4-4-----4-4-----4-4-----4-4------------|
B|------0-0-----0-0-----0-0-----0-0-----0-0------------|
G|------4-4-----4-4-----4-4-----4-4-----4-4------------|
D|------x-------x-------x-------x-------x--------------|
A|------2-------2-------2-------2-------2--------------|
E|--0-------0-------0-------0-------0---0--------------|

e|--4---5---4-----4-------------5------------4---------|
B|--0---4---0-----3-------------5------------0---------|
G|--4---5---4-----4-------------6------------4---------|
D|--x---4---x-----0-------------4------------x---------|
A|--2---0---2-----2-------------0------------2---------|
E|--0---x---0-----0-------------x------------0---------|

    dig his grave darlin with a sil-, silver spade
    dig his grave darlin with a sil-, silver spade

e|--5-------------4-----------|
B|--4-------------0-----------|
G|--5-------------4-----------|
D|--4-------------x-----------|
A|--0-------------2-----------|
E|--x-------------0-----------|

       and it was brother
       that got   drowned in

e|--5------8-------x---------0-x-0-x-0-x-|
B|--4------7------(9)--------7-7-0-7-7-7-|
G|--5------8-------8---------6-6-6-6-6-6-|
D|--4------7-------5---------4-4-4-4-4-4-|
A|--0------0-------5---------4-4-4-4-4-4-|
E|--x------x-------7---------5-5-5-5-5-5-|

       out in that deep blue sea

e|--x-------x---------------|
B|-(9)-----(7)--------------|
G|--8-------6---------------|
D|--5-------4---------------|
A|--5-------4---------------|
E|--7-------5---------------|

    Ohh ohh ohh oh oh oh oh       

e|------4-4------4-4------4-4------4-4------4--4---4---|
B|------0-0------0-0------0-0------0-0------0--0-0-0---|
G|------4-4------4-4------4-4------4-4------4--4-4-4---|
D|------x(0)-----x(0)-----x(0)-----x(0)-----x----x(0)--|
A|------2(0)-----2(0)-----2(0)-----2(0)-----2-----(0)--|
E|--0--------0--------0--------0--------0--------------|

    Ohhhh

e|------4-4------4-4------4---4---4------4-4-----4-4---|
B|------0-0------0-0------0---0-0-0------0-0-----0-0---|
G|------4-4------4-4------4---4-4-4------4-4-----4-4---|
D|------x(0)-----x(0)-----x-----x(0)-----x(0)----x(0)--|
A|------2(0)-----2(0)-----2------(0)-----2(0)----2(0)--|
E|--0--------0--------0--------------0--------0--------|

e|------4--4---4------4-4-----4--------4---------------|
B|------0--0-0-0------0-0-----0-0------0---------------|
G|------4--4-4-4------4-4-----4-4------4---------------|
D|------x----x(0)-----x(0)----x(0)-----x---------------|
A|------2-----(0)-----2(0)----2(0)-----2---------------|
E|--0-------------0--------0-------0-------------------|

e|--4----5---4----4-------------5------------4---------|
B|--0----4---0----3-------------5------------0---------|
G|--4----5---4----4-------------6------------4---------|
D|--x----4---x----0-------------4------------x---------|
A|--2----0---2----2-------------0------------2---------|
E|--0----x---0----0-------------x------------0---------|

    drop him down darlin with a gol-, golden chain

e|--4----5---4----7-------------9------------4---------|
B|--0----4---0----9-------------8------------0---------|
G|--4----5---4----7-------------9------------4---------|
D|--x----4---x----9-------------7------------x---------|
A|--2----0---2----7-------------0------------2---------|
E|--0----x---0----x-------------x------------0---------|

    drop him down darlin with a gol-, golden chain

e|--5-------------4-----------|
B|--4-------------0-----------|
G|--5-------------4-----------|
D|--4-------------x-----------|
A|--0-------------2-----------|
E|--x-------------0-----------|

       and it was daddy
       that got   drowned in

e|--5------8-------x---------0-x-|
B|--4------7------(9)--------7-7-|
G|--5------8-------8---------6-6-|
D|--4------7-------5---------4-4-|
A|--0------0-------5---------4-4-|
E|--x------x-------7---------5-5-|

       out in that deep blue sea

e|--x-------x---------------x------|
B|-(7)-----(9)--------------x------|
G|--6-------8---------------x------|
D|--4-------5---------------6------|
A|--4-------5---------------2------|
E|--5-------7---------------0------|

    Ohh ohh ohhh            ohhh      

    ~whistling! (repeat chords at the beginning)


=======================================================

| x  Mute note
| () Ghost note

            
            
Suggest correction
Creating personal tab
Creating personal tab
You can edit any tab online and save it as your Personal.

You can edit, replace or remove any tab part or add personal notes – all changes will be seen only by you.

Personal tabs can be accessed anytime from any device, even offline.
Learn more »
comments
print report bad tab
1 comment total.
0 reply
weerman44 277 Aug 23, 2017 01:21 PM

Beautiful chords

guest
You may want to rate the tab now too:
select rating
Wanna post a correction for this tab? Suggest correction