Oops, an error
Loading. Please wait.

Knife bass

version 1
version 1

Whole song

Interactive

4,984 views 6 this week
1 commentread comment
1 2 3 4 5
x 4
add to favorites
×
Save as Personal and add changes to this tab that will be seen only by you. Learn more ›
×
You can save this tab as Personal to edit and correct it or add notes. All changes will be seen only by you. Learn more »
launch autoscroll
font size
0
reset
guitar tuner
edit
Autoscroll
slow
fast
+/-
esc
set tempo
stop
Author
Difficulty
I could've made this shorter...but if I had tried, I would've made it 
is a awesome song...

(repeat 2 times)
G|-------------------------------------------------------------------------|
D|-------------------------------------------------------------------------|
A|----77---777---777---77777----44---444--444--44444-----------------------|
E|-------------------------------------------------------------------------|
(3th time)
G|-------------------------------------------------------------------------|
D|-------------------------------------------------------------------------|
A|----99---999---999---99999----77---777777~-------------------------------|
E|-------------------------------------------------------------------------|
"I want you to know...."
(2 times)
G|-------------------------------------------------------------------------|
D|-------------------------------------------------------------------------|
A|----77---777---777---77777----44---444--444--44444-----------------------|
E|-------------------------------------------------------------------------|
"you think it's alright"

G|-------------------------------------------------------------------------|
D|-------------------------------------------------------------------------|
A|----99---999---999---99999----77---777777~-------------------------------|
E|-------------------------------------------------------------------------|

"oooh"
2 times
G|-------------------------------------------------------------------------|
D|-------------------------------------------------------------------------|
A|----77---777---777---77777----44---444--444--44444-----------------------|
E|-------------------------------------------------------------------------|

3rd time
G|-------------------------------------------------------------------------|
D|-------------------------------------------------------------------------|
A|----99---999---999---99999----77---777777~-------------------------------|
E|-------------------------------------------------------------------------|

"can't you feel the knife?"
2 times
G|-------------------------------------------------------------------------|
D|-------------------------------------------------------------------------|
A|-----7~-----5~----4~-----------------------------------------------------|
E|-------------------------------------------------------------------------|

3rd time
G|-------------------------------------------------------------------------|
D|-------------------------------------------------------------------------|
A|-----7~-----5~---4~--5~-----3~----7~---10~---14~-------------------------|
E|-------------------------------------------------------------------------|

2 times
G|-------------------------------------------------------------------------|
D|-------------------------------------------------------------------------|
A|----77---777---777---77777----44---444--444--44444-----------------------|
E|-------------------------------------------------------------------------|

3rd time
G|-------------------------------------------------------------------------|
D|-------------------------------------------------------------------------|
A|----99---999---999---99999----77---777777~-------------------------------|
E|-------------------------------------------------------------------------|

            
            
Suggest correction
Creating personal tab
Creating personal tab
You can edit any tab online and save it as your Personal.

You can edit, replace or remove any tab part or add personal notes – all changes will be seen only by you.

Personal tabs can be accessed anytime from any device, even offline.
Learn more »
comments
print report bad tab
1 comment total.
0 reply
grizzlybare 10 Nov 15, 2009 02:35 PM

there is no bass in this song,and u have managed to even tab it on the wrong string...

guest
You may want to rate the tab now too:
select rating
Wanna post a correction for this tab? Suggest correction