Oops, an error
Loading. Please wait.

Shift tab

version 3
version 3

Whole song

Interactive

24,226 views 12 this week
2 commentsread comments
1 2 3 4 5
x 9
add to favorites
×
Save as Personal and add changes to this tab that will be seen only by you. Learn more ›
×
You can save this tab as Personal to edit and correct it or add notes. All changes will be seen only by you. Learn more »
launch autoscroll
font size
0
reset
how to read this tab
guitar tuner
edit
Autoscroll
slow
fast
+/-
esc
set tempo
stop
worked out the whole thign
note perfect i think did it last night
standard tuning

capo on 2

e|-----3---3---3---3-----3--|
B|-----4---4---4---4-----4--|
G|--------------------------|    X2 for intro
D|-----0-----0---0-------0--|
A|--------1----------0h1----|
E|--3----------1------------|


e|-----3---3---3---3-----3--|
B|-----4---4---4---4-----4--|
G|--------------------------|
D|-----0-----0---0-------0--|
A|--------1----------0h1----|
E|--3----------1------------|
Baby  I've Got Silver    and

e|-----3---3---3---3-----3--|
B|-----4---4---4---4-----4--|
G|--------------------------|
D|-----1-----1---0-------0--|
A|--3----------1-----0h1----|
E|--------3-----------------|

I've got  gold

same pattern follows throughout song.

************************************

| h  Hammer-on

************************************

            
            
Suggest correction
Creating personal tab
Creating personal tab
You can edit any tab online and save it as your Personal.

You can edit, replace or remove any tab part or add personal notes – all changes will be seen only by you.

Personal tabs can be accessed anytime from any device, even offline.
Learn more »
comments
print report bad tab
2 comments total.
0 reply
knutur 47 Aug 04, 2009 12:28 PM

nice tab is close to perfect.. the are a lot of variations but there is not need for posting things like that..

+1 reply
veloce 10 Apr 19, 2011 01:51 PM

You can use an eliot smith tuning to make it a little easier to play by tuning the B string up to a C! Try it!

guest
Wanna post a correction for this tab? Suggest correction