Oops, an error
Loading. Please wait.

While You Wait For The Others tab

version 1
version 1

Whole song

Interactive

55,686 views 36 this week
2 commentsread comments
1 2 3 4 5
x 12
add to favorites
×
Save as Personal and add changes to this tab that will be seen only by you. Learn more ›
×
You can save this tab as Personal to edit and correct it or add notes. All changes will be seen only by you. Learn more »
launch autoscroll
font size
0
reset
how to read this tab
guitar tuner
edit
Autoscroll
slow
fast
+/-
esc
set tempo
stop
Author
------------------------------------
While you wait for the others guitar tab
Grizzly Bear
Tabbed by legato72 AKA mraymond77 AKA Mike
------------------------------------

Drop D tuning



Dan starts off with this E chord thang

e|-------------------------------------------------------------------|
B|-------------------------------------------------------------------|
G|-------------------------------------------------------------------|
D|---6--6--6-6---6--6--6-6----6--------------------------------------|
A|---7--7--7-7---7--7--7-7----7--------------------------------------|
D|-8-9--9--9-9-8-8--8--8---9--9--------------------------------------|

but I personally prefer this to cover that low E string that's 
normally covered by the bass guitar


e|-------------------------------------------------------------------|
B|-------------------------------------------------------------------|
G|----1--1--1-1---1--1--1-1---1--1--1-1---1--1--1-1---1--------------|
D|----2--2--2-2---2--2--2-2---2--2--2-2---2--2--2-2---2--------------|
A|--1-2--2--2-2-1-1--1--1-1-2-2--2--2-2-1-1--1--1-1-2-2--------------|
D|----2--2--2-2---2--2--2-2---2--2--2-2---2--2--2-2---2--------------|


Verse:

 -----               -----
 -----               -----                                               
 --1--               --2--
 --2--               --4--
 --2--               --5--
 --2--               --0-- 

While you wait For the others



e|------------2--------------5--------5-5----5--5--------------------|
B|------------2--------------5--------7-7----5--7--------------------|
G|------------2------------6-6--------7-7----6--6--------------------|
D|------------4------------7-7--------7-7----7-----------------------|
A|------------x------------x-x--------0-0----x--x--------------------|
D|---4--------4---------7--7-7-----0----0----7--7--------------------|

  To make it all worth while     

repeated 3 times then


e|-------------------------------------------------------------------|
B|-------------------------------------------------------------------|
G|---1-------------------2-------------------------------------------|
D|---2-------------------4-------------------------------------------|
A|---2-------------------5-----------7------7-------6---------6------|
D|---2-------------------0-------6-----6-5----5--4---------4---------|

 Or just wait out the evening.. you'll only ask me why 
                                 you'll only leave me dry


 --0--               
 --0--                                                             
 --1--               
 --2--               
 --2--               
 --2--  
   
So Ill ask you Kindly

Chorus:

          
e|---------5----5--5-----2--2-------5--5-5---------------------------|
B|---------7----5--7-----2-h5p2-----5--5-5---------------------------|
G|---------7----6--6-----2--2-------6--6-6---------------------------|
D|---------7----7--x-----4--x-------7--7-7---------------------------|
A|---------0----x--x-----x--x-------x--x-x---------------------------|
D|---0--0--0--7-7--7---4-4--4----7--7--7-7---------------------------|


repeat Verse and Chorus

bridge: 
There's Always..

e|-------------------------------------------------------------------|
B|-------------------------------------------------------------------|
G|-------------------------------------------------------------------|  g
D|-------------------------------------------------------------------|
A|--------------------------------------2---4---7--------------------|
D|---0------6h7-----4---4---4---6---7-----------------0---0----------|  e

   one   one   one   one   one   one   one   one   one                  t


e|-------------------------------------------------------------------|
B|-------------------------------------------------------------------|
G|-------------------------------------------------------------------|
D|-------------------------------------------------------------------|  l
A|--------------------------------------2---4----7-------------------|
D|--0------6h7---7---4---4---4---6---7-----------------0---0---------|  o
     
   one one one one one one one one one one one one one one one          u

e|-------------------------------------------------------------------|  d
B|-------------------------------------------------------------------|
G|-------------------------------------------------------------------|  e
D|-------------------------------------------------------------------|
A|--------------------------------------2---4----7-------------------|  r
D|--0------6h7---7---4---4---4---6---7-----------------0---0---------|
     
   one one one one one one one one one one one one one one one          |
                                                                        |
                                                                        |
e|-------------------------------------------------------------------|  V
B|-------------0-------0---------------------------------------------|
G|-------------0-------0---------------------------------------------|
D|-------------0-------0---------------------------------------------|
A|---------------------0----------------2---4----7-------------------|
D|--0------6h7---7---4---4---4---6---7-----------------0---0---------|
     
   oneohoneahoneohoneahoneohoneahoneohoneahoneohoneahoneohoneoh


Chorus chords
and then.. End!

            
            
Suggest correction
Creating personal tab
Creating personal tab
You can edit any tab online and save it as your Personal.

You can edit, replace or remove any tab part or add personal notes – all changes will be seen only by you.

Personal tabs can be accessed anytime from any device, even offline.
Learn more »
comments
print report bad tab
2 comments total.
0 reply
CrazyYaz 725 Oct 28, 2009 06:43 AM

Nice tab mike. I need to practice this song. 5*

0 reply
minimattako 41 Nov 04, 2009 06:11 AM

thank you so much for this tab! :]

guest
You may want to rate the tab now too:
select rating
Wanna post a correction for this tab? Suggest correction