Oops, an error
Loading. Please wait.

At The River chords

400 views 18 this week
no commentswrite comment
1 2 3 4 5
3 more votes to show rating
add to favorites
×
Save as Personal and add changes to this tab that will be seen only by you. Learn more ›
×
You can save this tab as Personal to edit and correct it or add notes. All changes will be seen only by you. Learn more »
launch autoscroll
font size
0
reset
transpose
0
reset
simplify chords
display chords
guitar tuner
edit
Autoscroll
slow
fast
+/-
esc
set tempo
stop
About this tab version
The chords are played in 2/4 time. The fingerings for the riff are as placed on the guitar, not relative to the Capo. Was this info helpful? Yes No
Strumming
There is no strumming pattern for this song yet. and get +5 IQ
[Instrumental]
  G          G           Dm            Dm(maj7)      
e|--------------------11|11-9-8-9-11-7--------7-7-7|
B|9---------------------|--------------9----9------|
G|----------------------|--------------------------|
D|----------------------|--------------------------|
A|----------------------|--------------------------|
E|----------------------|--------------------------|

  C          C           Gaug            Gaug  
e|--------------------11|11-9-8-9-11-7-------------|
B|-9--------------------|--------------9--------9--|
G|----------------------|---------------------8----|
D|----------------------|--------------------------|
A|----------------------|--------------------------|
E|----------------------|--------------------------|

[Verse]
G                 G              Dm      Dm(maj7)
If you're fond of sand dunes and salty air
C              C        Gaug       Gaug
 Quaint little villages here and there

[Instrumental]

[Verse]
G                 G              Dm      Dm(maj7)
If you're fond of sand dunes and salty air
C              C        Gaug       Gaug
 Quaint little villages here and there

[Verse]
G                 G              Dm      Dm(maj7)
If you're fond of sand dunes and salty air
C              C        Gaug       Gaug
 Quaint little villages here and there

[Instrumental]

[Verse]
G                 G              Dm      Dm(maj7)
If you're fond of sand dunes and salty air
C              C        Gaug       Gaug
 Quaint little villages here and there

            
            
Suggest correction
Creating personal tab
Creating personal tab
You can edit any tab online and save it as your Personal.

You can edit, replace or remove any tab part or add personal notes – all changes will be seen only by you.

Personal tabs can be accessed anytime from any device, even offline.
Learn more »
Give kudos to tab author, rate the tab!
1 2 3 4 5
comments
print report bad tab
guest
You may want to rate the tab now too:
select rating
Wanna post a correction for this tab? Suggest correction