Oops, an error
Loading. Please wait.

Colours tab

version 4
version 4

Whole song

223 views 3 this week
no commentswrite comment
1 2 3 4 5
3 more votes to show rating
add to favorites
×
Save as Personal and add changes to this tab that will be seen only by you. Learn more ›
×
You can save this tab as Personal to edit and correct it or add notes. All changes will be seen only by you. Learn more »
launch autoscroll
font size
0
reset
how to read this tab
guitar tuner
edit
Autoscroll
slow
fast
+/-
esc
set tempo
stop
-------------------------------------------------------------------------------
                             COLOURS - Grouplove
-------------------------------------------------------------------------------
Tabbed by:sir-rex-a-lot

Tuning: Flat Eb Ab Db Gb Bb eb

There are a few tabs of this song already but I do not think they are 100% accurate.
Here's my take on this amazing song:

Guitar 1(Rhythm)- Christian Zucconi
Guitar 2(Lead)- Andrew Wessen
Bass- Sean Gadd (Formally)

Intro
Guitar 1
eb|---------------------------------------------------------------------------------------------------|
Bb|---------------------------------------------------------------------------------------------------|
Gb|---------------------------------------------------------------------------------------------------|
Db|-----------------------------------------------------------------------------------0-0-0-0-0-0-0-0-|
Ab|-----------------2-2-2-2-2-2-2-2-----------------2-2-2-2-2-2-0-2/5-----------------2-2-2-2-2-2-2-0-|
Eb|-3-3-3-3-3-3-3-3-----------------3-3-3-3-3-3-3-3-------------------3-3-3-3-3-3-3-3-----------------|

eb|-----------------------------------|
Bb|-----------------3-3-3-3-3---------|
Gb|-0-0-0-0-0-0-0-0-0-0-0-0-0---------|
Db|-0-0-0-0-0-0-0-0-0-0-0-0-0-0-0-0---|
Ab|-x-x-x-x-x-x-x-x-2-2-2-2-2-2-0-2/5-|
Eb|-3-3-3-3-3-3-3-3-------------------|

Rest of the band enters
  Guitar 1                  (15= fifteenth fret, 14= fourteenth fret, Played Quickly) 
eb|-3-3-3-3-3-3-3-3-3-3-3-3------------------3-3-3-3------------------3-3-3-3------------------|
Bb|-3-3-3-3-3-3-3-3-3-3-3-3------------------3-3-3-3------------------3-3-3-3------------------|
Gb|-0-0-0-0-0-0-0-0-0-0-0-0------------------0-0-0-0------------------0-0-0-0------------------|
Db|-0-0-0-0-0-0-0-0-0-0-0-0-0-0-0-0-0-0-0-0--0-0-0-0-0-0-0-0-0-0-0-0--0-0-0-0-0-0-0-0-0-0-0-0--|
Ab|-x-x-x-x-x-x-x-x-2-2-2-2/x-x-x-x-x-x-x-x--x-x-x-x-x-x-x-x-x-x-x-x-\2-2-2-2/x-x-x-x-x-x-x-x--|
Eb|-3-3-3-3-3-3-3-3--------/1515151514141414\3-3-3-3/1515151514141414\-------/1515151514141414\|
  |Guitar 2(Softly)                                                                            |
eb|--------------------------------------------------------------------------------------------|
Bb|--------------------------------------------------------------------------------------------|
Gb|--------------------------------------------------------------------------------------------|
Db|--------------------------------------------------------------------------------------------|
Ab|--------------------------------------------------------------------------------------------|
Eb|------------------------/1515151514141414\-------/1515151514141414\-------/1515151514141414\|
  |Bass (Note: The bass line goes along with the other parts, I just wanted to avoid warping the tab)|
Gb|-------------------------------------------------------------------|
Db|-------------------------------------------------------------------|
Ab|---------------5---------------5/--------------5-----------------5\|
Eb|-3-3-3-3-3-3-3---7-7-7-7-7-7-7---3-3-3-3-3-3-3---7-7-7-7-7-7-5-7---|

Intro Contiues

  Guitar 1
eb|-3-3-3-3------------------3-3-3-3------------------3-3-3-3------------------3-3-3-3-3-3-3-3-|
Bb|-3-3-3-3------------------3-3-3-3------------------3-3-3-3------------------3-3-3-3-3-3-3-3-|
Gb|-0-0-0-0------------------0-0-0-0------------------0-0-0-0------------------0-0-0-0-0-0-0-0-|
Db|-0-0-0-0-0-0-0-0-0-0-0-0--0-0-0-0-0-0-0-0-0-0-0-0--0-0-0-0-0-0-0-0-0-0-0-0--0-0-0-0-0-0-0-0-|
Ab|-x-x-x-x-x-x-x-x-x-x-x-x-\2-2-2-2/x-x-x-x-x-x-x-x--x-x-x-x-x-x-x-x-x-x-x-x-\2-2-2-2-2-2-2-2-|
Eb|-3-3-3-3/1515151514141414\-------/1515151514141414\3-3-3-3/1515151514141414\----------------|
  |Guitar 2(Turn on distortion)                                                                |
eb|--------------------------------------------------------------------------------------------|
Bb|--------------------------------------------------------------------------------------------|
Gb|--------------------------------------------------------------------------------------------|
Db|--------------------------------------------------------------------------------------------|
Ab|--------------------------------------------------------------------------------------------|
Eb|-3~~~~~~~~~~~~~~~~~~~7/-14~~~~~~~~~~~~~~~~~~~~~~~\3~~~~~~~~~~~~~-7-15-14~~~~~~~~15~~~~~~17~~|
  |Bass                                                               |
Gb|-------------------------------------------------------------------|
Db|-------------------------------------------------------------------|
Ab|---------------5---------------5/--------------5-----------------5\|
Eb|-3-3-3-3-3-3-3---7-7-7-7-7-7-7---3-3-3-3-3-3-3---7-7-7-7-7-7-5-7---|


Verse


  Guitar 1
eb|---------------------------------3-3-3-3-3-3-3-3-3-3-3-3-3---------3-3-3-3-3-3-3-3-3-3-3-3-3---------|
Bb|---------------------------------3-3-3-3-3-3-3-3-3-3-3-3-3---------3-3-3-3-3-3-3-3-3-3-3-3-3---------|
Gb|---------------------------------0-0-0-0-0-0-0-0-0-0-0-0-0---------0-0-0-0-0-0-0-0-0-0-0-0-0---------|
Db|-0-0-0-0-0-0-0-0-0-0-0-0-0-0-0---0-0-0-0-0-0-0-0-0-0-0-0-0-0-0-0---0-0-0-0-0-0-0-0-0-0-0-0-0-0-0-0---|
Ab|-x-x-x-x-x-x-x-x-2-2-2-2-2-0-2/5-x-x-x-x-x-x-x-x-2-2-2-2-2-2-0-2/5-x-x-x-x-x-x-x-x-2-2-2-2-2-2-0-2/5-|
Eb|-3-3-3-3-3-3-3-3-----------------3-3-3-3-3-3-3-3-------------------3-3-3-3-3-3-3-3-------------------|
  |Guitar 2(Hold the last note from intro solo)                                                         |
eb|-----------------------------------------------------------------------------------------------------|
Bb|-----------------------------------------------------------------------------------------------------|
Gb|-----------------------------------------------------------------------------------------------------|
Db|-----------------------------------------------------------------------------------------------------|
Ab|-----------------------------------------------------------------------------------------------------|
Eb|-19~~~~~~~~~~~~~-------------------------------------------------------------------------------------|
  |Bass                                                                                                 |
Gb|-----------------------------------------------------------------------------------------------------|
Db|-----------------------------------------------------------------------------------------------------|
Ab|---------------5---------------5\--------------5-----------------5/--------------5-----------------5/|
Eb|-3-3-3-3-3-3-3---7-7-7-7-7-5-7---3-3-3-3-3-3-3---7-7-7-7-7-7-5-7---3-3-3-3-3-3-3---7-7-7-7-7-7-5-7---|

  Guitar 1
eb|-3-3-3-3-3-3-3-3-3-3-3-3-3-3---------|
Bb|-3-3-3-3-3-3-3-3-3-3-3-3-3-3---------|
Gb|-0-0-0-0-0-0-0-0-0-0-0-0-0-0---------|
Db|-0-0-0-0-0-0-0-0-0-0-0-0-0-0-0-0-0---|
Ab|-x-x-x-x-x-x-x-x-2-2-2-2-2-2-2-0-2/5-|
Eb|-3-3-3-3-3-3-3-3---------------------|
  |Guitar 2                             |
eb|-------------------------------------|
Bb|-------------------------------------|
Gb|-------------------------------------|
Db|-------------------------------------|
Ab|-------------------------------------|
Eb|-----------------14~~~~~~~~~~19~~~~~~|
  |Bass                                 |
Gb|-------------------------------------|
Db|-------------------------------------|
Ab|---------------5---------------------|
Eb|-3-3-3-3-3-3-3---7-7-7-7-7-7-7-7-7---|


Chorus

  Guitar 1
eb|-3-3-3-3-3-3-3-3-2-2-2-2-2-2-2-2-3-3-3-3-3-3-3-3-2-2-2-2-2-2-2-2-|
Bb|-3-3-3-3-3-3-3-3-3-3-3-3-3-3-3-3-3-3-3-3-3-3-3-3-3-3-3-3-3-3-3-3-|
Gb|-0-0-0-0-0-0-0-0-4-4-4-4-4-4-4-4-0-0-0-0-0-0-0-0-4-4-4-4-4-4-4-4-|
Db|-0-0-0-0-0-0-0-0-4-4-4-4-4-4-4-4-0-0-0-0-0-0-0-0-4-4-4-4-4-4-4-4-|
Ab|-2-2-2-2-2-2-2-2-2-2-2-2-2-2-2-2-2-2-2-2-2-2-2-2-2-2-2-2-2-2-2-2-|
Eb|-3-3-3-3-3-3-3-3-----------------3-3-3-3-3-3-3-3-----------------|
  |Guitar 2                                                         |
eb|-----------------------------------------------------------------|
Bb|-----------------------------------------------------------------|
Gb|-----------------4-4-4-4-4-4-4-4-----------------4-4-4-4-4-4-4-4-|X2
Db|-5-5-5-5-5-5-5-5-4-4-4-4-4-4-4-4-5-5-5-5-5-5-5-5-4-4-4-4-4-4-4-4-|
Ab|-5-5-5-5-5-5-5-5-2-2-2-2-2-2-2-2-5-5-5-5-5-5-5-5-2-2-2-2-2-2-2-2-|
Eb|-3-3-3-3-3-3-3-3-----------------3-3-3-3-3-3-3-3-----------------|
  |Bass                                                             |
Gb|-----------------------------------------------------------------------|
Db|-----------------------------------------------------------------------|
Ab|---------------5-------------------------------------------------------|
Eb|-3-3-3-3-3-3-3---7-7-7-7-7-7-7-7/15-15-15-15-15-15-15-15\7-7-7-7-7-7-7-|


Second Verse

  Guitar 1
eb|-3~-------------------------------------------|
Bb|-3~-------------------------------------------|
Gb|-0~-------------------------------------------|
Db|-0~-------------------------------------------|
Ab|-2~--------------2~-----------------2~--------|
Eb|-3~------------------------3~-----------------|
  |Guitar 2                                      |
eb|----------------------------------------------|
Bb|----------------------------------------------|
Gb|----------------------------------------------|
Db|-5~-------------------------------------------|
Ab|-5~-------------------------------------------|
Eb|-3~-------------------------------------------|
  |Bass                                          |
Gb|----------------------------------------------|
Db|----------------------------------------------|
Ab|----------------------------------------------|
Eb|-3~-------------------------------------------|


  Guitar 1
eb|-----------------3-3-3-3-3-3-3-3-3-3-3-3-3-3-3-3-3-3-3-3-3-3-3-3-|
Bb|-----------------3-3-3-3-3-3-3-3-3-3-3-3-3-3-3-3-3-3-3-3-3-3-3-3-|
Gb|-----------------0-0-0-0-0-0-0-0-0-0-0-0-0-0-0-0-0-0-0-0-0-0-0-0-|
Db|-----------------0-0-0-0-0-0-0-0-0-0-0-0-0-0-0-0-0-0-0-0-0-0-0-0-|
Ab|-----------------2-2-2-2-2-2-2-2-x-x-x-x-x-x-x-x-2-2-2-2-2-2-2-2-|
Eb|-3-3-3-3-3-3-3-3-----------------3-3-3-3-3-3-3-3-----------------|
  |Guitar 2                                                         |
eb|-----------------------------------------------------------------|
Bb|-----------------------------------------------------------------|
Gb|-----------------------------------------------------------------|
Db|-----------------------------------------------------------------|
Ab|-----------------------------------------------------------------|
Eb|-----------------14~~~~~~~~~~~~\3~~~~~~~~~~~~~/15-14~~~~~~~~19~~~|
  |Bass                                                             |
Gb|-----------------------------------------------------------------|
Db|-----------------------------------------------------------------|
Ab|-------------------------------5---------------5---------------5-|
Eb|-----------------7-7-7-7-7-7-7---3-3-3-3-3-3-3---7-7-7-7-7-7-7---|



Play 1 count of the chorus


Solo/Bridge

  Guitar 1
eb|----------------------------------------------------------------------------------------------------|
Bb|----------------------------------------------------------------------------------------------------|
Gb|----------------------------------------------------------------------------------------------------|
Db|-0--0--0--0--0--0--0--0--0--0--0--0--0--0--0--0--0--0--0--0--0--0--0--0--0--0--0--0--0--0--0--0--0--|
Ab|-x--x--x--x--x--x--x--x--x--14-14-14-14-14-14-14-14-x--x--x--x--x--x--x--x--14-14-14-14-14-14-14-14-|
Eb|-15-15-15-15-15-15-15-15-15-------------------------15-15-15-15-15-15-15-15-------------------------|
  |Guitar 2(Tremolo pick)                                                                              |
eb|---------------------------555555555555555555555555777777777777888888777777-------------------------|
Bb|-88888888888888888888888888xxxxxxxxxxxxxxxxxxxxxxxxxxxxxxxxxxxxxxxxxxxxxxxx777777777777777777777777-|
Gb|-xxxxxxxxxxxxxxxxxxxxxxxxxx222222222222222222222222444444444444555555444444xxxxxxxxxxxxxxxxxxxxxxxx-|
Db|-55555555555555555555555555------------------------------------------------444444444444444444444444-|
Ab|----------------------------------------------------------------------------------------------------|
Eb|----------------------------------------------------------------------------------------------------|
  |Bass                                                                     |
Gb|-------------------------------------------------------------------------|
Db|-------------------------------------------------------------------------|
Ab|---------------5---------------------------------------------------------|
Eb|-3-3-3-3-3-3-3---7-7-7-7-7-7-7-7/15-15-15-15-15-15-15-15\7-7-7-7-7-7-7-7-|

  Guitar 1
eb|----------------------------------------------------------------------------------------------------|
Bb|----------------------------------------------------------------------------------------------------|
Gb|----------------------------------------------------------------------------------------------------|
Db|-0--0--0--0--0--0--0--0--0--0--0--0--0--0--0--0--0--0--0--0--0--0--0--0--0--9-9-9-9-9-9-9-9-9-9-9-9-|
Ab|-x--x--x--x--x--x--x--x--x--14-14-14-14-14-14-14-14-x--x--x--x--x--x--x--x--x-x-x-x-x-x-x-x-x-x-x-x-|
Eb|-15-15-15-15-15-15-15-15-15-------------------------15-15-15-15-15-15-15-15-7-7-7-7-7-7-7-7-7-7-7-7-|
  |Guitar 2(Tremolo pick)                                                     (12=twelve)              |
eb|---------------------------5555555555555555555555557777777777778888887777771212121212121212121212112|
Bb|-88888888888888888888888888xxxxxxxxxxxxxxxxxxxxxxxxxxxxxxxxxxxxxxxxxxxxxxxxxxxxxxxxxxxxxxxxxxxxxxxx-|
Gb|-xxxxxxxxxxxxxxxxxxxxxxxxxx222222222222222222222222444444444444555555444444999999999999999999999999-|
Db|-55555555555555555555555555-------------------------------------------------------------------------|
Ab|----------------------------------------------------------------------------------------------------|
Eb|----------------------------------------------------------------------------------------------------|
  |Bass                                                                                                |
Gb|----------------------------------------------------------------------------------------------------|
Db|----------------------------------------------------------------------------------------14----------|
Ab|---------------5------------------------------------------14-17-14-17-14-17-14-17-14-17----17-14----|
Eb|-3-3-3-3-3-3-3---7-7-7-7-7-7-7-7/15-15-15-15-15-15-15-15\----------------------------------------15~|


Play Chorus


Break Down
  Guitar 1
eb|-3~---------------------------------------------------------------------------------------------------------|
Bb|-3~---------------------------------------------------------------------------------------------------------|
Gb|-0~---------------------------------------------------------------------------------------------------------|
Db|-0~---------------------------------------------------------------------------------------------------------|
Ab|-2~-----------------------------------------------------2-2-2-2-2-2-0-2/5-----------------2-2-2-2-2-2-0-2-0-|
Eb|-3~-------------------------------------3-3-3-3-3-3-3-3-------------------3-3-3-3-3-3-3-3-------------------|
  |Guitar 2                                                                                                    |
eb|------------------------------------------------------------------------------------------------------------|
Bb|------------------------------------------------------------------------------------------------------------|
Gb|------------------------------------------------------------------------------------------------------------|
Db|-5~---------------------------------------------------------------------------------------------------------|
Ab|-5~---------------------------------------------------------------------------------------------------------|
Eb|-3~---------------------------------------------------------------------------------------------------------|
  |Bass                                                                                                        |
Gb|------------------------------------------------------------------------------------------------------------|
Db|------------------------------------------------------------------------------------------------------------|
Ab|---------5---------5----------5-----------------------5-----------------5---------------5-------------------|
Eb|-3~--------7~--------3~---------7~------3~--------------7~----------------3~--------------7~----------------|




  Guitar 1
eb|---------------------------------------------------------------------|
Bb|---------------------------------------------------------------------|
Gb|---------------------------------------------------------------------|
Db|---------------------------------------------------------------------|
Ab|-----------------2-2-2-2-2-2-0-2/5-------------------2-2-2-2-2-0-2/5-|
Eb|-3-3-3-3-3-3-3-3-------------------3-3-3-3-3-3-3-3-3-----------------|
  |Guitar 2                                                             |
eb|---------------------------------------------------------------------|
Bb|---------------------------------------------------------------------|
Gb|---------------------------------------------------------------------|
Db|---------------------------------------------------------------------|
Ab|---------------------------------------------------------------------|
Eb|---------------------------------------------------------------------|
  |Bass                                                                 |
Gb|---------------------------------------------------------------------|
Db|---------------------------------------------------------------------|
Ab|---------------5---------------5---------------5---------------------|
Eb|-3-3-3-3-3-3-3---7-7-7-7-7-7-7---3-3-3-3-3-3-3---7-7-7-7-7-7-7-7-----|

  Guitar 1
eb|-----------------------------------3-3-3-3-3-3-3-3-3-3-3-3-3-3-3-3-3-|
Bb|-----------------------------------3-3-3-3-3-3-3-3-3-3-3-3-3-3-3-3-3-|
Gb|-----------------0-0-0-0-0-0-------0-0-0-0-0-0-0-0-0-0-0-0-0-0-0-0-0-|
Db|-0-0-0-0-0-0-0-0-0-0-0-0-0-0-0-0---0-0-0-0-0-0-0-0-0-0-0-0-0-0-0-0-0-|
Ab|-x-x-x-x-x-x-x-x-2-2-2-2-2-2-0-2/5-x-x-x-x-x-x-x-x-x-2-2-2-2-2-2-2-2-|
Eb|-3-3-3-3-3-3-3-3-------------------3-3-3-3-3-3-3-3-3-----------------|
  |Guitar 2                                                             |
eb|---------------------------------------------------------------------|
Bb|---------------------------------------------------------------------|
Gb|---------------------------------------------------------------------|
Db|---------------------------------------------------------------------|
Ab|---------------------------------------------------------------------|
Eb|---------------------------------------------------------------------|
  |Bass                                                                 |
Gb|---------------------------------------------------------------------|
Db|---------------------------------------------------------------------|
Ab|---------------5---------------5---------------5---------------------|
Eb|-3-3-3-3-3-3-3---7-7-7-7-7-7-7---3-3-3-3-3-3-3---7-7-7-7-7-7-7-7-----|



  Guitar 1
eb|-3-3-3-3-3-3-3-3-3-3-3-3-3-3-3-3-3-3-3-3-3-3-3-3-3-3-3-3-3-3-3-3-----|
Bb|-3-3-3-3-3-3-3-3-3-3-3-3-3-3-3-3-3-3-3-3-3-3-3-3-3-3-3-3-3-3-3-3-----|
Gb|-0-0-0-0-0-0-0-0-0-0-0-0-0-0-0-0-0-0-0-0-0-0-0-0-0-0-0-0-0-0-0-0-----|
Db|-0-0-0-0-0-0-0-0-0-0-0-0-0-0-0-0-0-0-0-0-0-0-0-0-0-0-0-0-0-0-0-0-----|
Ab|-x-x-x-x-x-x-x-x-2-2-2-2-2-2-2-2-x-x-x-x-x-x-x-x-2-2-2-2-2-2-2-2-----|
Eb|-3-3-3-3-3-3-3-3-----------------3-3-3-3-3-3-3-3---------------------|
  |Guitar 2 (Palm muted)                                                |
eb|---------------------------------------------------------------------|
Bb|---------------------------------------------------------------------|
Gb|---------------------------------------------------------------------|X2
Db|---------------------------------------------------------------------|
Ab|-----------------2-2-2-2-2-2-0-2/5-----------------2-2-2-2-2-2-0-2/5-|
Eb|-3-3-3-3-3-3-3-3-------------------3-3-3-3-3-3-3-3-------------------|
  |Bass                                                                 |
Gb|----------------------------------------------------------------------|
Db|----------------------------------------------------------------------|
Ab|---------------5------------------------------------------------------|
Eb|-3-3-3-3-3-3-3---7-7-7-7-7-7-7-7/15-15-15-15-15-15-15-15\7-7-7-7-7-7-7|

Outro
4

  Guitar 1
eb|-3-3-3-3-3-3-3-3-2-2-2-2-2-2-2-2--|
Bb|-3-3-3-3-3-3-3-3-3-3-3-3-3-3-3-3--|
Gb|-0-0-0-0-0-0-0-0-4-4-4-4-4-4-4-4--|
Db|-0-0-0-0-0-0-0-0-4-4-4-4-4-4-4-4--|
Ab|-2-2-2-2-2-2-2-2-2-2-2-2-2-2-2-2--|
Eb|-3-3-3-3-3-3-3-3------------------|
  |Guitar 2                          |
eb|-----------------------------------|
Bb|-----------------------------------|
Gb|12--14--12-------12--14--12--------|X4 Slowed down on final run through
Db|--12--12--12-9/12--12--12--12------|
Ab|------------------------------12/14|
Eb|-----------------------------------|
  |Bass                               |
Gb|------------------------------------------|
Db|------------------------------------------|
Ab|---17--17--17--17-14-17-14-17-14-17-14-17-|
Eb|-15--15--15--15---------------------------|

Outro Continued

  Guitar 1
eb|-0~---------------3~----------------------------------------|
Bb|-1~---------------3~----------------------------------------|
Gb|-0~---------------0~----------------------------------------|
Db|-2~---------------0~----------------------------------------|
Ab|-3~---------------2~----------------------------------------|
Eb|-3~---------------3~-----/151515151515151515~~~~~~~~--------|
  |Guitar 2                                                    |
eb|-0-------0~-------------------------------------------------|
Bb|-1-------1~-------------------------------------------------|
Gb|-0-------0~-------------------------------------------------|
Db|-2-------2~-------------------------------------------------|
Ab|-3-------3~-------------------------------------------------|
Eb|-------------------------/151515151515151515~~~~~~~~~~~~~~--|
  |Bass                                                        |
Gb|------------------------------------------------------------|
Db|------------------------------------------------------------|
Ab|-15~--------------------------------------------------------|
Eb|------------------3~~~~~~/15~~~~~~~~~~~~~~~~~~~~~~~~~~~-----|


************************************

| /   slide up
| \   slide down
| h   hammer-on
| p   pull-off
| ~   vibrato
| +   harmonic
| x   Mute note
| b   Bend
| pb  Pre-bend
| br  Bend release
| pbr Pre-bend release
| brb Bend release bend

************************************

            
            
Suggest correction
Creating personal tab
Creating personal tab
You can edit any tab online and save it as your Personal.

You can edit, replace or remove any tab part or add personal notes – all changes will be seen only by you.

Personal tabs can be accessed anytime from any device, even offline.
Learn more »
Give kudos to tab author, rate the tab!
1 2 3 4 5
comments
print report bad tab
guest
You may want to rate the tab now too:
select rating
Wanna post a correction for this tab? Suggest correction