Oops, an error
Loading. Please wait.

Tongue Tied bass

version 3
version 3

Whole song

736 views 12 this week
no commentswrite comment
1 2 3 4 5
x 3
add to favorites
×
Save as Personal and add changes to this tab that will be seen only by you. Learn more ›
×
You can save this tab as Personal to edit and correct it or add notes. All changes will be seen only by you. Learn more »
launch autoscroll
font size
0
reset
guitar tuner
edit
Autoscroll
slow
fast
+/-
esc
set tempo
stop
Author
Difficulty
Grouplove - Tongue Tied

This tab comes almost entirely off of a cover I found on youtube, so credits to him for figuring out the song,
it helped immensely in writing this tab. So thank you to Bryan Hume, and here is a link to his cover!

https://www.youtube.com/watch?v=nBGoh7VvJTc
     

   [VERSE 1}
G|---------------------------------------------------------------------------|
D|----------------------------8-10-------------------------------------------|
A|---------------------------------------------------------------------------|
E|-4--4-4--4--4\8---4--4-4--4------------------------------------------------|
   
G|---------------------------------------------------------------------------|
D|------12--12-----------12--12-----------12--12-----------12--12------------|
A|--6-6\12-----13----6-6\12-----13----6-6\12-----13----6-6\12-----13---------|  
E|---------------------------------------------------------------------------|
   
G|---------------------------------------------------------------------------|
D|----------------------------8-10-------------------------------------------|
A|---------------------------------------------------------------------------|
E|-4--4-4--4--4\8---4--4-4--4------------------------------------------------|

G|---------------------------------------------------------------------------|
D|------12--12-----------12--12----------------------------------------------|
A|--6-6\12-----13----6-6\12-----13-------------------------------------------|  
E|---------------------------------------------------------------------------|

   [CHORUS]
G|---------------------------------------------------------------------------|
D|----5-------------3---3-------------5-3-5-3--------------------------------|
A|--3-----------------5---5-6---6---6----------------------------------------|   
E|------3-3-6-3-6-6-----------6---6------------------------------------------|    

G|---------------------------------------------------------------------------|
D|---------------------------------------------------------------------------|
A|---------------------------------------------------------------------------|
E|-4-4-6-6-8-8-11-11-4-4-6-6-8-8-11-11---------------------------------------|

   [Verse 2]
G|---------------------------------------------------------------------------|
D|------12--12-----------12--12-----------12--12-----------12--12------------|
A|--6-6\12-----13----6-6\12-----13----6-6\12-----13----6-6\12-----13---------|  
E|---------------------------------------------------------------------------|
   
G|---------------------------------------------------------------------------|
D|----------------------------8-10-------------------------------------------|
A|---------------------------------------------------------------------------|
E|-4--4-4--4--4\8---4--4-4--4------------------------------------------------|

G|---------------------------------------------------------------------------|
D|------12--12-----------12--12----------------------------------------------|
A|--6-6\12-----13----6-6\12-----13-------------------------------------------|  
E|---------------------------------------------------------------------------|

   [CHORUS]
G|---------------------------------------------------------------------------|
D|----5-------------3---3-------------5-3-5-3--------------------------------|
A|--3-----------------5---5-6---6---6----------------------------------------|   
E|------3-3-6-3-6-6-----------6---6------------------------------------------|    

G|---------------------------------------------------------------------------|
D|---------------------------------------------------------------------------|
A|-------------------------------------6-------------------------------------|
E|-4-4-6-6-8-8-11-11-4-4-6-6-8-8-11-11---------------------------------------|


   [INTERLUDE/RAP]      (One, Two, Three. Four)
G|-15-12----15--12---------15-12-12--12-15-12--------------------------------|
D|-------13------------------------------------------------------------------|
A|-------------------(x3)----------------------------------------------------|
E|---------------------------------------------------------------------------|

G|-15-12----15--12--------15-12-12--12---------------------------------------|
D|-------13-----------------------------15-13-13/----------------------------|
A|-------------------(x3)----------------------------------------------------|
E|---------------------------------------------------------------------------|

   A Couple Bars of Silence

   [CHORUS]
G|---------------------------------------------------------------------------|
D|-----------------3---3-------------5-3-5-3---------------------------------|
A|-3-----------------5---5-6---6---6-----------------------------------------|
E|-----3-3-6-3-6-6-----------6---6------------4-4-4-4-4-4-4-4----------------|

   [BRIDGE]
G|--------------------------------8---8--------------------------------------|
D|--------8-10/-------------------------------------8----8-------------------|
A|-8--11---------------8----8-6-----6---6---11--11----11---------------------|  x2
E|--------------8--11----11--------------------------------------------------|

G|--------------------------------8---8--------------------------------------|
D|--------8-10/--------------------------------------------------------------|
A|-8--11---------------8----8-6-----6---6------------------------------------|
E|--------------8--11----11--------------------------------------------------|

   [ENDING/OUTRO]
G|---13--13--13--15--10-10-10-10-------------7---8---8---8---8---------------|
D|--------------------------------10-10-10-----------------------------------|
A|-11--11--11--13---8--8--8--8-------------5---6---6---6---6-----------------|  x4
E|-------------------------------8--8--8-------------------------------------|

G|---------------------------------------------------------------------------|
D|---------------------------------------------------------------------------|
A|--------------------6------------------------------------------------------|  x2
E|-4----1-----1\8------------------------------------------------------------|

I highly recommend watching the video at the top of this tab if you are having trouble playing the song. If
anyone wants to contact me or politely critique the content or format of this tab (First One!!), email me at:
brendanbastian@gmail.com

Enjoy!
************************************

| x   Dead note
| g   Grace note
| (n) Ghost note
| h   Hammer-on
| p   Pull-off
| r   Release
| >   Accented note
| t   Tapping
| b   Bend
| br  Bend release
| pb  Pre-bend
| pbr Pre-bend release
| /   Slide up
| \   Slide down
| ~   Vibrato
| s   Slap
| P   Pop
| PM  Palm mute
| TR  Trill
| N   Tremolo

************************************

            
            
Suggest correction
Creating personal tab
Creating personal tab
You can edit any tab online and save it as your Personal.

You can edit, replace or remove any tab part or add personal notes – all changes will be seen only by you.

Personal tabs can be accessed anytime from any device, even offline.
Learn more »
Give kudos to tab author, rate the tab!
1 2 3 4 5
comments
print report bad tab
guest
You may want to rate the tab now too:
select rating
Wanna post a correction for this tab? Suggest correction