Oops, an error
Loading. Please wait.

Punk Superstars bass

by Gufi
986 views 1 this week
no commentswrite comment
1 2 3 4 5
3 more votes to show rating
add to favorites
×
Save as Personal and add changes to this tab that will be seen only by you. Learn more ›
×
You can save this tab as Personal to edit and correct it or add notes. All changes will be seen only by you. Learn more »
launch autoscroll
font size
0
reset
guitar tuner
edit
Autoscroll
slow
fast
+/-
esc
set tempo
stop
Author
+++++++++++++++++++++++++
| Gufi- Punk Superstars |
+++++++++++++++++++++++++


"Una canción que pegue bien..."

Tuning: EADG


Intro
1.
G|-------------------------------------------|
D|-------------2~----676---------------2~----|
A|-4~----2~-------------7--0~----2~----------|
E|-------------------------------------------|

Verse
"Vas a quererme cuando no este..."  
2.
G|-------------------------------------|
D|-------------------22222222----------|
A|-00000000-22222222----------44444444-|--x2
E|-------------------------------------|

Pre-Chorus
"Una canción que pegue bien..."
3.
G|-------------------------------------|
D|-------------------66666766-44444444-|
A|-00000000-22222222-------------------|
E|-------------------------------------|

"Seré tu punk, tu super punk..."
4.
G|-----------------|
D|-----------------|
A|-0000000-222-222-|
E|-----------------|

Chorus
"We are the stars..."
5.
G|---------------------|
D|-----------2222------|
A|-0000-2222------4444-|--x3
E|---------------------|

"We are the punks..."
6.
G|-------------------|
D|-------------------|
A|-00000000-22222222-|
E|-------------------|

Outro
7.
G|--------------------------------------|
D|-22222222-----------------------------|
A|----------22222222-0000-0000--4444-22-|--x2
E|--------------------------------------|

Verse
"Estamos hechos para este rol..."
8.
G|-------------------------------------|
D|-------------------22222222----------|
A|-00000000-22222222----------44444444-|--x2
E|-------------------------------------|

Pre-Chorus
"Una canción que pegue bien..."
9.
G|-------------------------------------|
D|-------------------66666766-44444444-|
A|-00000000-22222222-------------------|
E|-------------------------------------|

"Seré tu punk, tu super punk..."
10.
G|-----------------|
D|-----------------|
A|-0000000-222-222-|
E|-----------------|

Chorus
"We are the stars..."
11.
G|---------------------|
D|-----------2222------|
A|-0000-2222------4444-|--x3
E|---------------------|

"We are the punks..."
12.
G|-------------------|
D|-------------------|
A|-00000000-22222222-|
E|-------------------|

Outro
13.
G|--------------------------------------|
D|-22222222-----------------------------|
A|----------22222222-0000-0000--4444-22-|--x2
E|--------------------------------------|

Bridge
14.
G|-----------------------|
D|-2~--------------------|
A|-----------------------|
E|-----------------------|

"Consigue juana..." 
15.
G|---------1111111-2222222-4444444-|
D|-2222222-------------------------|
A|---------------------------------|--x2
E|---------------------------------|

"Consigue piernas..."
16.
G|---------------------------------|
D|---------------------------------|
A|---------------------------------|
E|-0000000-4444444-5555555-7777777-|

"Consigue caca..."
17.
G|---------------------------------|
D|---------------------------------|
A|---------------------------------|
E|-0000000-4444444-5555555-7-7-7-7-|

Chorus
"We are the stars..."
18.
G|---------------------|
D|-----------2222------|
A|-0000-2222------4444-|--x3
E|---------------------|

"We are the punks..."
19.
G|-------------------|
D|-------------------|
A|-00000000-22222222-|
E|-------------------|

"We are the stars..."
20.
G|---------------------|
D|-----------2222------|
A|-0000-2222------4444-|--x3
E|---------------------|

"We are the punks..."
21.
G|-------------------|
D|-------------------|
A|-00000000-22222222-|
E|-------------------|

Outro
22.
G|----------------------------------------------------|
D|-22222222----------------------------------------2~-|
A|----------22222222-0000-0000-0000x-------4444-22----|
E|----------------------------------------------------|


Lyrics:


Vas a quererme cuando no este
Prende la tele busca en MTV
Ella me dijo olvidame
Asi que gusto eso es lo que voi a hacer

Una canción que pege bien
Seré un punky que haga roles en ingles
Seré tu punk (I'll be your punk)
Tu super punk...

We are the star, we are the superstars
We are the punks, the punky superstars
We are the stars, the super superstars
We are the punks (We are the punks)
We are the superstars..

Estamos hechos para este rol
En cada radio y show de televisión
Que tan dificil podría ser
Si fuimos de asco para esta estupidez

Consigue juana
Un poco para tí, un poco para mi
Consigue fama
Consigue piernas
Consigue caca

The one and only stars



+++++++++++++++++++++++++++++++++
| RaiLeff                       |
| Underground__Dora@hotmail.com |
+++++++++++++++++++++++++++++++++

            
            
Suggest correction
Creating personal tab
Creating personal tab
You can edit any tab online and save it as your Personal.

You can edit, replace or remove any tab part or add personal notes – all changes will be seen only by you.

Personal tabs can be accessed anytime from any device, even offline.
Learn more »
Give kudos to tab author, rate the tab!
1 2 3 4 5
comments
print report bad tab
guest
You may want to rate the tab now too:
select rating
Wanna post a correction for this tab? Suggest correction