Oops, an error
Loading. Please wait.

The Things That I Used To Do tab

version 1
version 1

Whole song

Interactive

11,273 views 24 this week
no commentswrite comment
1 2 3 4 5
x 4
add to favorites
×
Save as Personal and add changes to this tab that will be seen only by you. Learn more ›
×
You can save this tab as Personal to edit and correct it or add notes. All changes will be seen only by you. Learn more »
launch autoscroll
font size
0
reset
how to read this tab
guitar tuner
edit
Autoscroll
slow
fast
+/-
esc
set tempo
stop
Author
Rythm: slow blues (some kind of brass instruments, sounds well on a second guitar 
though) repeat through entire song

e|-----------------------------------------------------------------------------------------|
B|-----------------------------------------------------------------------------------------|
G|-----------7-10--------------------7-10----7-10--------------------9-12----7-10----------|
D|---7-10--8---------7-10----7-10--8-------8--------7-10----7-10--10-------8---------7-10--|
A|-8---------------8-------8----------------------8-------8------------------------8-------|
E|-----------------------------------------------------------------------------------------|

lead fills

 E E E E E E
e|-----1-3-1-1----|
B|-2h3------------|
G|----------------|
D|----------------|
A|----------------|
E|----------------|


   E E E E    E  E  E E E E E
e|-------------------------------|
B|----------/10-10-10-6h8p6------|
G|-----5-7------------------7----|
D|-6h7---------------------------|
A|-------------------------------|
E|-------------------------------|


   E E E E E E E
e|------------------|
B|---------6-8-6----|
G|-----5-7----------|
D|-6h7--------------|
A|------------------|
E|------------------|


   E E E E E E E
e|------------------|
B|-----6-8-6---6----|
G|-----------7------|
D|-7-8--------------|
A|------------------|
E|------------------|


   E E E E    E  E  E E E E E
e|-------------------------------|
B|----------/10-10-10-6h8p6------|
G|-----5-7------------------7----|
D|-5h7---------------------------|
A|-------------------------------|
E|-------------------------------|


   E E E E E E E
e|------------------|
B|---------6-8-6----|
G|-----5-7----------|
D|-5h7--------------|
A|------------------|
E|------------------|


    E  E  E  E  E
e|-------------------|
B|-------------------|
G|-------10h12p10----|
D|-10h12-------------|
A|-------------------|
E|-------------------|


   E E E E    E  E  E E E E E
e|-------------------------------|
B|----------/10-10-10-6h8p6------|
G|-----5-7------------------7----|
D|-5h7---------------------------|
A|-------------------------------|
E|-------------------------------|


   E E E E  E
e|---------------|
B|---------------|
G|-----5-7-------|
D|-5h7-----------|
A|---------------|
E|----------8----|


   E E E E
e|------------|
B|-----6-8----|
G|-5h7--------|
D|------------|
A|------------|
E|------------|


   E E E E    E  E  E E E E E
e|-------------------------------|
B|----------/10-10-10-6h8p6------|
G|-----5-7------------------7----|
D|-5h7---------------------------|
A|-------------------------------|
E|-------------------------------|


   E E E E E E E
e|------------------|
B|---------6-8-6----|
G|-----5-7----------|
D|-5h7--------------|
A|------------------|
E|------------------|


   E E E E
e|------------|
B|-----6-8----|
G|-5h7--------|
D|------------|
A|------------|
E|------------|


   E E E E    E  E  E E E E E
e|-------------------------------|
B|----------/10-10-10-6h8p6------|
G|-----5-8------------------7----|
D|-5h7---------------------------|
A|-------------------------------|
E|-------------------------------|


   E E E E E E E
e|------------------|
B|---------6-8-6----|
G|-----5-7----------|
D|-5h7--------------|
A|------------------|
E|------------------|


   E E E E
e|------------|
B|-----6-8----|
G|-5h7--------|
D|------------|
A|------------|
E|------------|


   E E E E  E E E  E E E
e|---------/5-----/5--------|
B|------------6------6------|
G|-----5-7------7------7----|
D|-5h7----------------------|
A|--------------------------|
E|--------------------------|


   E E E E E
e|--------------|
B|--------------|
G|-----5-5------|
D|-5-7----------|
A|--------------|
E|---------8----|


   E E E E E E E E E E   E  E  E E E E E E  E    E E E E
e|----------------------------------------------------------|
B|-----6-8-6-8-6-8-6-8-/10-10-10-8-6------------------------|
G|-5-7-------------------------------7-5h7-(x)---5h7-5h7----|
D|----------------------------------------------------------|
A|----------------------------------------------------------|
E|----------------------------------------------------------|


   E E E E E E E E   E E   E  E  E E E E   E E  E  E E E E
e|-----------------|---------------------|--------------------|
B|-----6-8-6-8-6-8-|-6-8-/10-10-10-8-6---|--------------------|
G|-5-7-------------|-------------------7-|-5h7-(x)-5h7-5h7----|
D|-----------------|---------------------|--------------------|
A|-----------------|---------------------|--------------------|
E|-----------------|---------------------|--------------------|


   E E E   E E E E E E E E E  E  E   E E E    E  E  E   E E E  E  E  E E E
e|-------/10-8-8-8-8-8-8-8-8-10-----------------------------------------------|
B|-----6------------------------10\------6--/11-11-10\------6\-8-10-10-8p6----|
G|-5-7-------------------------------5-7----------------5h7-------------------|
D|----------------------------------------------------------------------------|
A|----------------------------------------------------------------------------|
E|----------------------------------------------------------------------------|


   E E E E E E  E  E E E E  E E E E E E   E  E   E E E E  E E E E E
e|---------------------------------------------------------------------|
B|-----6-6h8-8h10--8p6--------------6-8\-10--8\-10-6-------------------|
G|-5h7-----------------7p5------5-7------------------7-5------5-5------|
D|--------------------------5-7---------------------------5-7----------|
A|---------------------------------------------------------------------|
E|----------------------------------------------------------------8----|


   E E E E   E E   E E E E   E E  E E E E E  E E E E E  E E E E E
e|-------------------------------------------------------------------|
B|-----6-8\-10-8-------6-8\-10-8------6-8p6------6-8p6------6--------|
G|-5h7-------------5h7------------5h7--------5h7--------5h7---7-5----|
D|-------------------------------------------------------------------|
A|-------------------------------------------------------------------|
E|-------------------------------------------------------------------|


   E E E E E
e|--------------|
B|--------------|
G|-----5-5------|
D|-5-7----------|
A|--------------|
E|---------8----|


   E E E E E
e|--------------|
B|-----6-8-6----|
G|-5h7----------|
D|--------------|
A|--------------|
E|--------------|


   E E E E E   E  E  E E E E E
e|--------------------------------|
B|---------8\-10-10-10-6h8p6------|
G|-----5-7-------------------7----|
D|-5h7----------------------------|
A|--------------------------------|
E|--------------------------------|


   E E E E E E E
e|------------------|
B|---------6-8p6----|
G|-----5-7----------|
D|-5h7--------------|
A|------------------|
E|------------------|


   E E E E
e|------------|
B|-----6-8----|
G|-5h7--------|
D|------------|
A|------------|
E|------------|


   E E E E E   E  E  E   E E E E
e|---------------------|------------|
B|---------8\-10-10-10-|-6h8p6------|
G|-----5-7-------------|-------7----|
D|-5h7-----------------|------------|
A|---------------------|------------|
E|---------------------|------------|


   E E E E E
e|--------------|
B|--------------|
G|-----5-7------|
D|-5-7----------|
A|---------8----|
E|--------------|


   E E E E E E E E E
e|----------------------|
B|---------6-8-6--------|
G|-----5-7-------7-5----|
D|-5-7------------------|
A|----------------------|
E|----------------------|


   E E E E
e|------------|
B|-----6-8----|
G|-5-7--------|
D|------------|
A|------------|
E|------------|

************************************

| h  Hammer-on
| p  Pull-off
| /  Slide up
| \  Slide down
|(x) 
Tapped harmonic
| E - 8th (Duration)

************************************

            
            
Suggest correction
Creating personal tab
Creating personal tab
You can edit any tab online and save it as your Personal.

You can edit, replace or remove any tab part or add personal notes – all changes will be seen only by you.

Personal tabs can be accessed anytime from any device, even offline.
Learn more »
comments
print report bad tab
guest
You may want to rate the tab now too:
select rating
Wanna post a correction for this tab? Suggest correction