Oops, an error
Loading. Please wait.

Its So Easy bass

version 3
version 3
15,555 views 6 this week
4 commentsread comments
1 2 3 4 5
x 8
add to favorites
×
Save as Personal and add changes to this tab that will be seen only by you. Learn more ›
×
You can save this tab as Personal to edit and correct it or add notes. All changes will be seen only by you. Learn more »
launch autoscroll
font size
0
reset
guitar tuner
backing track
0:00
0:00
edit
Autoscroll
slow
fast
+/-
esc
set tempo
stop
It's so easy
Guns and Roses
Appetite for Destruction
Tabbed by Marc Hind
(This is a fairly easy song to play so just listen for the bass)
/ slide

Intro
F|---99999999-99-9999-(times 4 then)/12-14-12-9---|
C|------------------------------------------------|
G|------------------------------------------------|
D|------------------------------------------------|

Verse x4 (If u want it to sound stronger hit a 3 on the D every first zero)
F|---------------------------------|
C|---------------------------------|
G|---1-11--------------------------|
D|----------330-000-0000-----------|
                   (3030)alternative

Chorus x4
F|---------------------------|
C|---------------------------|
G|---2202320-----------------|
D|------------2-222222—------|

Verse x4
F|---------------------------------|
C|---------------------------------|
G|---1-11--------------------------|
D|----------330-000-0000-----------|

Chorus x4
F|---------------------------|
C|---------------------------|
G|---2202320-----------------|
D|------------2-222222—------|

Post-Chorus (let notes ring)
(its so eaaaaassyyyyy when nothing seems to please me ........)
F|---------------------------------------------------------------------|
C|---------------------------------------------------------------------|
G|-------------2----0--------------------------22222222----00000000----|
D|---2----3------------22222222----33333333----------------------------|

(Play this it really fast and rattle the fuck out of the string)
F|-----------------------------------------------|
C|-----------------------------------------------|
G|-----------------------------------------------|
D|---0000000000000000000000000000000000000000----|

Cool bitty
F|------------------------------------------|
C|------------------------------------------|
G|---5-5------------------------------------|
D|---------3320--00-00000000----------------|

"why don't you just.. Fuck off"

Verse x8 (this is when the guitar goes into a solo)
F|---------------------------------|
C|---------------------------------|
G|---1-11--------------------------|
D|----------330-000-0000-----------|

Chorus x4
F|---------------------------|
C|---------------------------|
G|---2202320-----------------|
D|------------2-222222—------|

Post-Chorus 2 (let notes ring) x2
(its so eaaaaassyyyyy when nothing seems to please me ........)
F|------------------------------------------------|
C|------------------------------------------------|
G|--------------2----0--------------2----0--------|
D|---2----3---------------2----3------------------| Then..

Post-Chorus 2 x2
(so come with me, don't ask me where cause I don't know.....)
F|---------------------------------------------------------------|
C|---------------------------------------------------------------|
G|-------------------------------------- 22222222----00000000----|
D|--- 22222222----33333333---------------------------------------|

Verse x8
F|---------------------------------|
C|---------------------------------|
G|---1-11--------------------------|
D|----------330-000-0000-----------|

Outro x4
F|--------------------------|
C|---8-7-5------------------|
G|---------7----------------|
D|-----------6-5-3-0--------|

            
            
Suggest correction
Creating personal tab
Creating personal tab
You can edit any tab online and save it as your Personal.

You can edit, replace or remove any tab part or add personal notes – all changes will be seen only by you.

Personal tabs can be accessed anytime from any device, even offline.
Learn more »
comments
print report bad tab
4 comments total. Showing first comments.
+1 reply
KasanDude 100 Jan 26, 2009 08:05 AM

How the hell do these tabs get approved?? The song is NOT in Drop-D.... Why does everyone seem to think so. This is the second It's so easy tab that has been marked as "Drop-d", even though drop-d is NOT "D G C F", everyone seems to think so. All the fills are missing, and the part after the first slow part is wrong, the slow part itself is wrong, as the notes have a rhythm like: 1...1.2...1.2...1.2..... This tab is pretty much wrong.

+1 reply
punk&metal 10 Mar 17, 2009 12:12 AM

i agree

+1 reply
jbridge90 20 Aug 27, 2009 01:16 PM

I also concur

guest
Wanna post a correction for this tab? Suggest correction