Oops, an error
Loading. Please wait.
We have an official Knockin On Heavens Door tab made by UG professional guitarists. Check out the tab »
×
69,977 views 75 this week
3 commentsread comments
1 2 3 4 5
x 5
add to favorites
×
Save as Personal and add changes to this tab that will be seen only by you. Learn more ›
×
You can save this tab as Personal to edit and correct it or add notes. All changes will be seen only by you. Learn more »
launch autoscroll
font size
0
reset
guitar tuner
backing track
0:00
0:00
edit
Autoscroll
slow
fast
+/-
esc
set tempo
stop
Author
Unregistered
Song: Knockin' on Heaven's Door
Artist: Guns n Roses
Album: Use Your Illusion 2

Tabbed By: El Marfio
E-Mail: Crowman1982@hotmail.com

Comments:

I'm pretty sure that this is how the song is played. The only thing
I'm a little unsure about are the little embellishments he plays at
at the end of each phrase.

Tuning: Tune down a 1/2 step to Gb,Db,Ab,Eb


[Intro]

Gb|-------|------------------------------------|------------------------|
Db|-------|------------------------------------|----------------------5-|
Ab|-------|------2-3-5--0-3--3--0-3-0-3--3-0-5-|------2-3-5--0-3--0-3---|
Eb|-0-1-2-|-3--3-------------------------------|-3--3-------------------|


[Verse 1]

Gb|------------------------------|-------------------------------|
Db|------------------------------|-------------------------------|
Ab|--------5-----------------3-2-|----2-3-5--3--0-3-0-3--3-0-5-2-|
Eb|-9/--3-----5--5-5--5--5-3-----|-3-----------------------------|

Gb|----------------2-|------------------------------------------|
Db|------------------|------------------------------------2-4-5-|
Ab|----5-------2-3---|----2-3-5--0-3--3-3-3--3-3-3--3-3-5-------|
Eb|-3-----5--5-------|-3----------------------------------------|


[Chorus 1]

Gb|----------------------5-------------------|
Db|------------------------------------------|
Ab|-------2-3-5--5--0-3-----0-3-0-3--3-0-5-2-|
Eb|-3--3-------------------------------------|

Gb|---------------------------------------------|
Db|---------------------------------2-4-5-------|
Ab|-------2-3-5--5--0-3--3--0-3-3-5-------0-3-2-|
Eb|-3--3----------------------------------------|

Gb|------------------------------------------------|
Db|-----------------------------------3------------|
Ab|------2-3-5--5--0-3--3--------------------------|
Eb|-3--3-------------------0-0-0-0-1-----1-2-2-2-2-|

Gb|----------------------------|
Db|--------------------------5-|
Ab|-------2-3-5--5--0-3--0-3---|
Eb|-3--3-----------------------|


[Solo 1]

Gb|-----------------|----------------------|
Db|-----------------|----------------------|
Ab|----5--3--0-3--3-|----2-3-5--3--3-3-3-3-|
Eb|-3---------------|-3--------------------|

Gb|----------------------|----------------------------|
Db|----------------------|--------------2-----5-2-----|
Ab|----2-3-5--3----------|----2-3-5--3----5-3-----5-2-|
Eb|-3------------0-0-1-2-|-3--------------------------|


[Verse 2]

Gb|-------------2------2------------|-------------------------------|
Db|---------------------------------|-------------------------------|
Ab|----2-3-5--0----0-0---0-0-0--3-2-|----2-3-5--3--3-3-0-3--3-0-5-2-|
Eb|-3-------------------------------|-3-----------------------------|

Gb|----------------2-2--2-------|-------------------------------------------|
Db|-----------------------5-2---|-------------------------------------2-4-5-|
Ab|----2-3-5--0--0------------5-|----2-3-5--5--0-3--3-3-3-3-3-3-3-3-5-------|
Eb|-3---------------------------|-3-----------------------------------------|


[Chorus 2]

Gb|------------------------------------------|
Db|------------------------------------------|
Ab|-------2-3-5--5--0-3--3--0-3-0-3--3-0-5-2-|
Eb|-3--3-------------------------------------|

Gb|--------------------------------------------------|
Db|--------------------------------------------------|
Ab|-------2-3-5--5--0-3--3---------------------------|
Eb|-3--3-------------------0-0-0-0--1-1-1-1--2-2-2-2-|

Gb|----------------------------------------|
Db|--------------------------2-----5-2-----|
Ab|-------2-3-5--0-3--3--0-3---5-3-----5-2-|
Eb|-3--3-----------------------------------|

Gb|----------------------------------------|
Db|------------------------5-5-5-5-5-5-5-5-|
Ab|-------2-3-5--5--3----------------------|
Eb|-3--3---------------0-3-----------------|


[Solo 2]

Gb|------------------------------------------|
Db|------------------------------------------|
Ab|-------2-3-5--5--0-3--3--0-3-0-3--3-0-5-2-|
Eb|-3--3-------------------------------------|

Gb|--------------------------------------------------|
Db|--------------------------------------------------|
Ab|-------2-3-5--5--0-3--3---------------------------|
Eb|-3--3-------------------0-0-0-0--1-1-1-1--2-2-2-2-|

Gb|-------------------------------------------|
Db|---------------------------5-5-5-5-5-2-----|
Ab|-------2-3-5--5--0-3--3--0-------------5-2-|
Eb|-3--3--------------------------------------|

Gb|----------------------------------------|
Db|----------------------------------------|
Ab|-------2-3-5--5--0-3--3--0-3-0-3--3-0-5-|
Eb|-3--3-----------------------------------|


[Bridge]

Gb|---------------------------------|-------------------------------|
Db|---------------------------------|-------------------------------|
Ab|------2--5-5--3-3--3-3-3-3-------|------2--5-5--3-3------2-2-2---|
Eb|-3-3-----------------------0-1-2-|-3-3---------------0-3-------3-|

Gb|-------------------------------|---------------------------------------------------|
Db|-------------------5-5-5-5-----|---------------------------------------------------|
Ab|------2--5-5--3-3----------3-2-|------------2--5-5-5-5-5--3-3-3-3-3----------------|
Eb|-3-3---------------------------|-3-3-3-3-3---------------------------0-0-1-1-0-2-0-|

Gb|---------------------------------|---------------------------------|
Db|---------------------------------|-------------------5-2---5-2-----|
Ab|------2--5-5--3-3--3-3-3-3-------|------2--5-5--3-3------5-----5-3-|
Eb|-3-3-----------------------0-1-2-|-3-3-----------------------------|

Gb|-------------------------------------------|
Db|-------------------------------3-----------|
Ab|------2--5-5--3-3--3-----------------------|
Eb|-3-3-----------------0-0-0-0-1---1-2-2-2-2-|

Gb|----------------------------------------------|
Db|----------------------2-------5-------5-2-----|
Ab|------2--5-5--3-3-3-3---3-3-3---3-3-3-----5-2-|
Eb|-3-3------------------------------------------|


Gb|---------------------------------|---------------------------------------------|
Db|-------------------2-----5-2-----|-------------------------------5---5---------|
Ab|------2--5-5--3-3----5-3-----5-2-|------2--5-5--3-3----------------------------|
Eb|-3-3-----------------------------|-3-3---------------0-3-5-5-5-3---3---2-2-2-0-|

Gb|---------------------------------|-----------|--------------------------------------------------|
Db|-------------------2-----5-2-----|-----------|--------------------------------------------------|
Ab|------2--5-5--3-3----5-3-----5-2-|------REST-|-3-3-3-3-3-3-3-3/1-3-1-3-1-3-1-3-1-3-1-3-1-3-1-3\-|
Eb|-3-3-----------------------------|-3-3-------|--------------------------------------------------|


[Outro]

Gb|------------------------------------------|
Db|------------------------------------------|
Ab|-------2-3-5--5--0-3--3--0-3-0-3--3-0-5-2-|
Eb|-3--3-------------------------------------|

Gb|----------------------------------------------|
Db|----------------------------------3-----------|
Ab|-------2-3-5--5--0-3--3-----------------------|
Eb|-3--3-------------------0-0-0-0-1---1-2-2-2-2-|

Gb|----------------------------------------------------|
Db|---------------------5-2--------------5-2-----------|
Ab|-------2-3-5--5--0-3-----5-3-2-0-3--3-----5-3-2-0-2-|
Eb|-3--3-----------------------------------------------|

Gb|---------------------------------|-----------------------------|
Db|---------------------------------|-----------------------------|
Ab|-------2-3-5--5--0-3--3--0-3-3-3-|-0-3-0-3-0-3-----------3-2---|
Eb|-3--3----------------------------|-------------0-2-0-3-0-----3-|

I'm pretty sure thats it's correct but as i said before I'm a little unsure
of some of the embellishments at the end of some of the phrases.



************************************

| b  Bend
| /  Slide up
| \  Slide down

************************************

            
            
Suggest correction
Creating personal tab
Creating personal tab
You can edit any tab online and save it as your Personal.

You can edit, replace or remove any tab part or add personal notes – all changes will be seen only by you.

Personal tabs can be accessed anytime from any device, even offline.
Learn more »
comments
print report bad tab
3 comments total.
0 reply
ibanez89 91 Aug 30, 2004 08:00 PM

I'd correct it, but I have just figured out how to play the Dylan Version, so i am too down, just to listen to the song dude, sorry ;)

0 reply
monkey_xxx2003 660 May 24, 2005 08:00 PM

excellent

0 reply
fuisk 31 Oct 28, 2008 04:20 PM

awsome!

guest
Wanna post a correction for this tab? Suggest correction