Oops, an error
Loading. Please wait.
We have an official Knockin On Heavens Door tab made by UG professional guitarists. Check out the tab »
×
18,907 views 6 this week
no commentswrite comment
1 2 3 4 5
x 5
add to favorites
×
Save as Personal and add changes to this tab that will be seen only by you. Learn more ›
×
You can save this tab as Personal to edit and correct it or add notes. All changes will be seen only by you. Learn more »
launch autoscroll
font size
0
reset
how to read this tab
guitar tuner
backing track
0:00
0:00
edit
Autoscroll
slow
fast
+/-
esc
set tempo
stop
Song : Knocking on heaven's door (live)
Artist : Guns and Roses
Album : Tokyo Use your illusion II


[Solo 1]

D#|----------------------------------------------------------|
A#|--------------3h5-3h5-3h5-3-------------------------------|
F#|------5brb-------------------5-4-5~-----------------------|
C#|----------------------------------------------------------|
G#|----------------------------------------------------------|
D#|----------------------------------------------------------|


D#|----------------------------------------------------------|
A#|----------------------------------------------------------|
F#|----------------------------------------------------------|
C#|-----5--7b-----5h7-5-------5------------------------------|
G#|----------------------5h7-----5h7--5----------2-3-2~------|
D#|----------------------------------------------------------|


D#|----------------------------------------------------------|
A#|----------------------------------------------------------|
F#|-------------------2-4-5-5/7--5-4-5-5/7-5-4-5-5/7---------|
C#|------------2-4-5-----------------------------------------|
G#|-----2-3-5------------------------------------------------|
D#|----------------------------------------------------------|


D#|----------------------------------------------------------|
A#|-----------------------------------8-7-8-7-8-8/10---------|
F#|------5-4-5/7-5-4----/11-9-9~-----------------------------|
C#|----------------------------------------------------------|
G#|----------------------------------------------------------|
D#|----------------------------------------------------------|


D#|---------------------------------10----------------10-----|
A#|-------8h10p8/7-8-8~---------10b----10r-8-10-8-10b----10r-|
F#|------------------------9-7-------------------------------|
C#|----------------------------------------------------------|
G#|----------------------------------------------------------|
D#|----------------------------------------------------------|


D#|--------10-8/7-8p7----------------------------------------|
A#|-----8-------------8--------------------------------------|
F#|---------------------7~-----------------------------------|
C#|----------------------------------------------------------|
G#|----------------------------------------------------------|
D#|----------------------------------------------------------|

[Solo 2]


D#|----------------10----------------------------------------|
A#|-------10-12-13-----13b-----13-12-13b-13-12---------------|
F#|----12---------------------------------------12~----------|
C#|----------------------------------------------------------|
G#|----------------------------------------------------------|
D#|----------------------------------------------------------|


D#|----------------------------------------------------------|
A#|-----------------------15---------------------------------|
F#|------------12-----14b----14r~----------------------------|
C#|------12h14----14-----------------------------------------|
G#|----------------------------------------------------------|
D#|----------------------------------------------------------|


D#|----------------------------------------------------------|
A#|----------------------------------------------------------|
F#|-----------12----12h14p12----14----12~--------------------|
C#|-----12h14----14----------14---(14)-----------------------|
G#|----------------------------------------------------------|
D#|----------------------------------------------------------|


D#|-------------------------15-------------------------------|
A#|------------13~----12-13----13-12-13-12h13p12----12-13----|
F#|-----14-12------------------------------------14----------|
C#|----------------------------------------------------------|
G#|----------------------------------------------------------|
D#|----------------------------------------------------------|


D#|----------------------------------------------------------|
A#|---15-13-----13-12h13p12----12-----12---------------------|
F#|-------------------------14----14b----14brp12----14~------|
C#|----------------------------------------------14----------|
G#|----------------------------------------------------------|
D#|----------------------------------------------------------|


D#|-------------------------------------15---------15--------|
A#|-----------15-----------13~------15b----15rp13-----15br~--|
F#|----12-14b----14r-12-14----14-12--------------------------|
C#|----------------------------------------------------------|
G#|----------------------------------------------------------|
D#|----------------------------------------------------------|


D#|----------------------------------------------------------|
A#|-----13-15------------------------------------------------|
F#|-----------14b-14-12-14----12-----------------------------|
C#|------------------------14----12-14-----------------------|
G#|------------------------------------12-14-12br/10-12-10---|
D#|----------------------------------------------------------|


D#|----------------------------------------------------------|
A#|-----------------------------15-----15br-13h15p13/12-13---|
F#|--------------------12-14/16----16------------------------|
C#|--------------12-14---------------------------------------|
G#|-----10-12/14---------------------------------------------|
D#|--12------------------------------------------------------|


D#|----------------------------------------------------------|
A#|-----15br~--13p12-13p12-13p12-13p12-10-10~----------------|
F#|-------------------------------------------10-12-10-12----|
C#|----------------------------------------------------------|
G#|----------------------------------------------------------|
D#|----------------------------------------------------------|


D#|----------------------------------------------------------|
A#|----------------------------------------------------------|
F#|-----10---------------------------------------------------|
C#|--------12-10-9-10-9br-------------9-10-12-12~------------|
G#|------------------------10~-----10------------------------|
D#|----------------------------------------------------------|

D#|-----------------------------8-------10-------12~---------|
A#|----------------------------------------------------------|
F#|------------------------/8------/10------/12--------------|
C#|-----10h12p10/9-10~---------------------------------------|
G#|----------------------------------------------------------|
D#|----------------------------------------------------------|

D#|-----10-12-10-------10---------------------10-----10------|
A#|---------------10b-----10r-8-10---8-10brp8----10b----10r--|
F#|--------------------------------8-------------------------|
C#|----------------------------------------------------------|
G#|----------------------------------------------------------|
D#|----------------------------------------------------------|

D#|----------------------------------------------------------|
A#|----8---8h10-8---8~------10-8-7~---8-7-8-7-5-7-5----------|
F#|------9--------9------------------------------------------|
C#|----------------------------------------------------------|
G#|----------------------------------------------------------|
D#|----------------------------------------------------------|

D#|---------------------------3-----3-----3-----3-----3------|
A#|------5-3-5-3-----3---------------------------------------|
F#|--------------5-4---5-4h5----4h5---4h5---4h5---4h5---4h5--|
C#|----------------------------------------------------------|
G#|----------------------------------------------------------|
D#|----------------------------------------------------------|

D#|---------3-----3-----3-----3-----3-----3-----3-----3------|
A#|----------------------------------------------------------|
F#|-----4h5---4h5---4h5---4h5---4h5---4h5---4h5---4h5---4h5--|
C#|----------------------------------------------------------|
G#|----------------------------------------------------------|
D#|----------------------------------------------------------|


D#|---------3-----3-----3-----3-----3------------------------|
A#|-----------3h5---------3h5---------3h5--------------------|
F#|-----4h5---------4h5---------4h5--------------------------|
C#|----------------------------------------------------------|
G#|----------------------------------------------------------|
D#|----------------------------------------------------------|

D#|---------3-----3-----3-----3-----3------------------------|
A#|-----------3h5---------3h5---------3h5--------------------|
F#|-----4h5---------4h5---------4h5--------------------------|
C#|----------------------------------------------------------|
G#|----------------------------------------------------------|
D#|----------------------------------------------------------|

D#|----------3-----------------------------------------------|
A#|------------3-3-5-3----5brp3------------------------------|
F#|------4h5--------------------5-4---2brp0------0-----------|
C#|------------------------------------------0h2---0h2-0-----|
G#|----------------------------------------------------------|
D#|----------------------------------------------------------|

D#|----------------------------------------------------------|
A#|----------------------------------------------------------|
F#|----------------------------------------------------------|
C#|-------------4/5~-------------5-4~------5-4-5/7-5-7/10----|
G#|---------2-5--------------2-5-----------------------------|
D#|-----2-3----------------3---------------------------------|

D#|---------8-------10--------------7h10p7----7h10p7---------|
A#|-------8---8-10b----10r-8-10b-----------10--------10------|
F#|-----9----------------------------------------------------|
C#|----------------------------------------------------------|
G#|----------------------------------------------------------|
D#|----------------------------------------------------------|

D#|----7h10p7----7h10p7------7h10p7--------------------------|
A#|-----------10--------10----------10-----------------------|
F#|----------------------------------------------------------|
C#|----------------------------------------------------------|
G#|----------------------------------------------------------|
D#|----------------------------------------------------------|

D#|----7h10p7----7h10p7------7h10p7--------------------------|
A#|-----------10--------10----------10-----------------------|
F#|----------------------------------------------------------|
C#|----------------------------------------------------------|
G#|----------------------------------------------------------|
D#|----------------------------------------------------------|

D#|----7h10p7----7h10p7-----7---------(10)-------------------|
A#|-----------10--------10----10b~~~~~~~~--------------------|
F#|----------------------------------------------------------|
C#|----------------------------------------------------------|
G#|----------------------------------------------------------|
D#|----------------------------------------------------------|

D#|-----------10---------------------------------------------|
A#|-------10b----10r-8---10-8---8~----10-8-------------------|
F#|--------------------9------9------------------------------|
C#|----------------------------------------------------------|
G#|----------------------------------------------------------|
D#|----------------------------------------------------------|


D#|--------10-10-10------------------13----------------------|
A#|-----------------13br11-13-11-13b----13-13-11~------------|
F#|----------------------------------------------------------|
C#|----------------------------------------------------------|
G#|----------------------------------------------------------|
D#|----------------------------------------------------------|


D#|------13b----------13b---12b----12brp10-12p10----10-------|
A#|----------------------------------------------13----13b---|
F#|----------------------------------------------------------|
C#|----------------------------------------------------------|
G#|----------------------------------------------------------|
D#|----------------------------------------------------------|


D#|--------10-10---------------------------------------------|
A#|--------------13b-13brp11----13--11-----------------------|
F#|--------------------------12------------------------------|
C#|--------------------------------------12p10/8b~-----------|
G#|----------------------------------------------------------|
D#|----------------------------------------------------------|


D#|----------------------------------------------------------|
A#|------------------------------------8-10p8---11p8---------|
F#|--------------------------------7-9--------9------9-------|
C#|--------------8----10br-10-8-10---------------------------|
G#|------10-8-10---10----------------------------------------|
D#|----------------------------------------------------------|


D#|----------------------------------------------------------|
A#|----10p8---11p8---11p8---11p8---10p8-----11p8-------------|
F#|---------9------9------9------9------9--------9-----------|
C#|----------------------------------------------------------|
G#|----------------------------------------------------------|
D#|----------------------------------------------------------|

D#|----------------------------------------------------------|
A#|----10p8---11p8---10p8---11p8---10p8----------------------|
F#|---------9------9------9------9------9--------------------|
C#|----------------------------------------------------------|
G#|----------------------------------------------------------|
D#|----------------------------------------------------------|

D#|----------------------------------------------------------|
A#|----10p8---11p8---10p8---11p8---10p8----------------------|
F#|---------9------9------9------9------9--------------------|
C#|----------------------------------------------------------|
G#|----------------------------------------------------------|
D#|----------------------------------------------------------|

D#|----------------------------------------------------------|
A#|-------15bb---15bb--15-14-13--11-13-13brp11-13-11h13------|
F#|----------------------------------------------------------|
C#|----------------------------------------------------------|
G#|----------------------------------------------------------|
D#|----------------------------------------------------------|


D#|----------------------------------------------------------|
A#|----------------------------------------------------------|
F#|-------7----7------------------------10-------------------|
C#|----(10)-10---10brp8-10~-----8-10/12----12-11-10-8-10-8---|
G#|----------------------------------------------------------|
D#|----------------------------------------------------------|


D#|----------------------------------------------------------|
A#|----------------------------------------------------------|
F#|---------------------------------------------------10~----|
C#|---------8------------------8----8b~-------8-10/12--------|
G#|----10-8---10-8----8h10-10~---10--------10----------------|
D#|----------------10----------------------------------------|


D#|----------------------------------------------------------|
A#|------------------------11-11~-----------------11~--------|
F#|-------10---------10-12--------------12p10----------------|
C#|----12---------12--------------------------12-------------|
G#|----------------------------------------------------------|
D#|----------------------------------------------------------|

D#|----------------------------------------------------------|
A#|--------------11~----------------11~----------------------|
F#|----12p10---------------12p10-----------------------------|
C#|----------12------------------12--------------------------|
G#|----------------------------------------------------------|
D#|----------------------------------------------------------|

D#|----------------------------------------------------------|
A#|--------------11~----------------11~----------------------|
F#|----12p10---------------12p10-----------------------------|
C#|----------12------------------12--------------------------|
G#|----------------------------------------------------------|
D#|----------------------------------------------------------|

D#|----------------------------------------------------------|
A#|---------------11br----------------11br-11----------------|
F#|-----12p10---------------12p10-------------12-10----------|
C#|-----------12------------------12-------------------------|
G#|----------------------------------------------------------|
D#|----------------------------------------------------------|


D#|----------------------------------------------------------|
A#|--------11b-11--------------11b-11-----------11b----------|
F#|---------------12-10---------------12-10------------------|
C#|----------------------------------------------------------|
G#|----------------------------------------------------------|
D#|----------------------------------------------------------|


D#|-----------13-----13-----13-----13-----13-----13----------|
A#|-------13b----13b----13b----13b----13b----13b-------------|
F#|----------------------------------------------------------|
C#|----------------------------------------------------------|
G#|----------------------------------------------------------|
D#|----------------------------------------------------------|

D#|-----------13-----13-----13-----13-----13-----------------|
A#|-------13b----13b----13b----13b----13b----13brp11-13-11---|
F#|----------------------------------------------------------|
C#|----------------------------------------------------------|
G#|----------------------------------------------------------|
D#|----------------------------------------------------------|


D#|----------------------------------------------------------|
A#|----------------------------------------------------------|
F#|-----12~-------11~------9~--------------------------------|
C#|------------------------------12~-----10/9----------------|
G#|----------------------------------------------10~---------|
D#|----------------------------------------------------------|

D#|----------------------------------------------------------|
A#|----------------------------------------------------------|
F#|----------------------------------------------------------|
C#|----------------------------------------------------------|
G#|-----9~-----7~-------5~--------3/2------------------------|
D#|-----------------------------------------3~---------------|



************************************

| h    hammer on
| p    pull off
| b    bend string up
| bb   1 1/2 tone bend
| H    hold bend
| r    release bend
| /    slides
| ~    vibrato
| x    play 'note' with heavy damping
| (*)  harmonics

************************************

            
            
Suggest correction
Creating personal tab
Creating personal tab
You can edit any tab online and save it as your Personal.

You can edit, replace or remove any tab part or add personal notes – all changes will be seen only by you.

Personal tabs can be accessed anytime from any device, even offline.
Learn more »
comments
print report bad tab
guest
You may want to rate the tab now too:
select rating
Wanna post a correction for this tab? Suggest correction