Oops, an error
Loading. Please wait.
We have an official Sweet Child O Mine tab made by UG professional guitarists. Check out the tab »
×

Sweet Child O Mine solo tab

version 2
version 2

Solo

Whole song

Video

  • This is solo video is part 8 of a full tutorial se... Show more
9,628 views 192 this week
no commentswrite comment
1 2 3 4 5
x 7
add to favorites
×
Save as Personal and add changes to this tab that will be seen only by you. Learn more ›
×
You can save this tab as Personal to edit and correct it or add notes. All changes will be seen only by you. Learn more »
launch autoscroll
font size
0
reset
how to read this tab
guitar tuner
backing track
0:00
0:00
edit
Autoscroll
slow
fast
+/-
esc
set tempo
stop
Here are the two first solo's in sweet child o'mine
I did not tab the last one because IT is hard, long 
and I don't know the solo well enough to tab it...
Anyway enjoy... Let me know what you guys think og this tab
Email: tabs.comments@gmail.com

[Solo 1]

e|---------------------------------------------------------------------------|
B|---------------------------------------------------------------------------|
G|--13-11---10~~-13-11---10~~-13-11--------13-11-----------------------------|
D|------------------------------------13~~---------13~~----------------------|
A|---------------------------------------------------------------------------|
E|---------------------------------------------------------------------------|

e|---------------------------------------------------------------------------|
B|-------------------------14-14b16------------------------------------------|
G|--13-11---13b15-11-13br15--------------------------------------------------|
D|-----------------------------------13b15-----------------------------------|
A|---------------------------------------------------------------------------|
E|---------------------------------------------------------------------------|


[Solo 2]

e|---------------------------------------------------------------------------|
B|---------------------------------------------------------------------------|
G|----13-11---10~~-13-11---10~~-13-11---------13-11--------------------------|
D|--------------------------------------13~~----------13~~-------------------|
A|---------------------------------------------------------------------------|
E|---------------------------------------------------------------------------|

e|---------------------------------------------------------------------------|
B|-----------------------------------------13--------------------------------|
G|---13-11~--13-11~--10b11-------10b11---------10b11~~-----------------------|
D|----------------------------13---------------------------------------------|
A|---------------------------------------------------------------------------|
E|---------------------------------------------------------------------------|
                                             Hold bend
e|---------------------------------------------------------------------------|
B|---------------------------------------------------------------------------|
G|----13-11---10~--13-11---10/15-----18-18-16--18b20-18b20-18-18-16-16-15----|
D|---------------------------------------------------------------------------|
A|---------------------------------------------------------------------------|
E|---------------------------------------------------------------------------|

e|----------------------------------------------16---------------------------|
B|----------------------------14-14b16---17br19------------------------------|
G|--11-------13b15-11-13br15-------------------------------------------------|
D|------13-------------------------------------------------------------------|
A|---------------------------------------------------------------------------|
E|---------------------------------------------------------------------------|


************************************ 

| b   Bend
| br  Bend release
| /   Slide up
| ~   Vibrato

************************************

            
            
Suggest correction
Creating personal tab
Creating personal tab
You can edit any tab online and save it as your Personal.

You can edit, replace or remove any tab part or add personal notes – all changes will be seen only by you.

Personal tabs can be accessed anytime from any device, even offline.
Learn more »
comments
print report bad tab
guest
You may want to rate the tab now too:
select rating
Wanna post a correction for this tab? Suggest correction