Oops, an error
Loading. Please wait.
We have an official Welcome To The Jungle tab made by UG professional guitarists. Check out the tab »
×

Welcome To The Jungle bass

59,001 views 126 this week
8 commentsread comments
1 2 3 4 5
x 35
add to favorites
×
Save as Personal and add changes to this tab that will be seen only by you. Learn more ›
×
You can save this tab as Personal to edit and correct it or add notes. All changes will be seen only by you. Learn more »
launch autoscroll
font size
0
reset
guitar tuner
backing track
0:00
0:00
edit
Autoscroll
slow
fast
+/-
esc
set tempo
stop
Guns N’ Roses
Welcome To The Jungle
Appetite For Destruction (down ½ step, Eb, Ab, Db, Gb)


[Intro] (come in at 00:13, after Axl says ‘oh my ‘god’)
Gb|--------------------------|------------------------------------------------------------|
Db|-9v--7v-------------7-8-9-|-9-9-9-9-9-9-9-9-9-9--7-7-7-7-7-7-7-7-7-7-------------------|
Ab|-------------5-6-7--------|------------------------------------------7-7-7-7-7-7-7-7-7-|
Eb|--------7\3---------------|------------------------------------------------------------|

Gb|------------------------------------------|
Db|------------------------------7-8-9-------|
Ab|-5v-------------------------9---------9\3-|
Eb|----5v--7-7-7-7-7-7-7-7-7/9---------0-----|

Gb|--------------------|
Db|--------------------|
Ab|--------------------|  
Eb|-5-5-3-5-5--5-3-2-0-|(x3)

Gb|--------------------|
Db|--------------5-5-5-|
Ab|--------------------|
Eb|-5-5-3-5-5--5-------|

[Verse] (00:36)
Gb|--------------------|
Db|--------------------|
Ab|--------------------| 
Eb|-5-5-3-5-5--5-3-2-0-|(x4)

Gb|--------------------------|
Db|--------------------------|
Ab|--------------------5-6-7-|
Eb|-5-5-3-5-5--5-3-2-0-------|

Gb|--------------------|
Db|--------------------|
Ab|-7-7-5-7-7-7-5-4----| 
Eb|------------------7-|(x4)

[Pre-Chorus] (00:59)
Gb|-----------------------|
Db|-----------------------|
Ab|---------------5-5-5-5-|
Eb|-8-8-8-8-0-3-0---------|

[Chorus](01:03)
Gb|-------------------|
Db|-------------------|
Ab|-7-7-5-5-----------| 
Eb|---------6-6-5-3-0-|(x3)

Gb|---------------|
Db|---------------|
Ab|-7--5----------|
Eb|-------6--5--3-|

[Verse] (01:11)
Gb|--------------------|
Db|--------------------|
Ab|--------------------| 
Eb|-5-5-3-5-5--5-3-2-0-|(x4)

Gb|--------------------------|
Db|--------------------------|
Ab|--------------------5-6-7-|
Eb|-5-5-3-5-5--5-3-2-0-------|

Gb|--------------------|
Db|--------------------|
Ab|-7-7-5-7-7-7-5-4----| 
Eb|------------------7-|(x4)

[Pre-Chorus] (01:26)
Gb|-----------------------|
Db|-----------------------|
Ab|---------------5-5-5-5-|
Eb|-8-8-8-8-0-3-0---------|

[Chorus] (01:31)
Gb|-------------------|
Db|-------------------|
Ab|-7-7-5-5-----------| 
Eb|---------6-6-5-3-0-|(x3)

Gb|---------------|
Db|---------------|
Ab|---------------|
Eb|-7--7--7--7--7-|

[Solo 1] (01:39)
Gb|-----------------------------------|
Db|-----------------------------------|
Ab|-----4-5-----7-7-----4-5-----------|
Eb|-000-----000-----000-----000-3-3-3-|(x2)

Gb|-------------------------------------|
Db|-------------------------------5---5-|
Ab|-----4-5-----7-7-----4-5-------------|
Eb|-000-----000-----000-----000-3---3---|

Gb|---------------------------------|
Db|---------------------------------|
Ab|---4-5-----7-7-----4-5-----------|
Eb|-0-----000-----000-----000-3-3-3-|

[Verse] (01:54)
Gb|--------------------|
Db|--------------------|
Ab|--------------------| 
Eb|-5-5-3-5-5--5-3-2-0-|(x4)

Gb|--------------------------|
Db|--------------------------|
Ab|--------------------5-6-7-|
Eb|-5-5-3-5-5--5-3-2-0-------|

Gb|--------------------|
Db|--------------------|
Ab|-7-7-5-7-7-7-5-4----| 
Eb|------------------7-|(x4)

[Pre-Chorus] (02:09)
Gb|-----------------------|
Db|-----------------------|
Ab|---------------5-5-5-5-|
Eb|-8-8-8-8-0-3-0---------|

[Chorus]     (02:13)
Gb|-------------------|
Db|-------------------|
Ab|-7-7-5-5-----------| 
Eb|---------6-6-5-3-0-|(x3)

Gb|---------------|
Db|---------------|
Ab|-7--5----------|
Eb|-------6--5--3-|

[Slow Part] (2:21, after “I Wanna Watch You Bleed!”)
Gb|---------------------------------------------|
Db|---------------------3-4-5-------------------|
Ab|-5v----5v----3-4-5v--------3-4-5-0-5-0-3-2-0-|
Eb|----3v----3v---------------------------------|

(2:35,after “When Your High You Never, Never Wanna Be Down…”)
Gb|---------|
Db|---------|
Ab|---------| 
Eb|-33333-1-|(x3)

Gb|-----------|
Db|-----5-5-5-|
Ab|-----------|
Eb|-5-5-------|

[Solo 2] (02:43)
Gb|-----------------------------------|
Db|-----------------------------------|
Ab|-----4-5-----7-7-----4-5-----------| 
Eb|-000-----000-----000-----000-3-3-3-|(x2)

Gb|-----------------------------------|
Db|-----------------------------------|
Ab|-----------------------------------| 
Eb|-9-7-9-7-9-7-9-7-0-7-5-7-5-7-5-7-0-|(x3)

Gb|----------------------------------------------|
Db|----------------------------------------------|
Ab|----------------------------------------------|
Eb|-9-7-9-7-9-7-9-7-0-7-5-7-5-7-5-7-5--0-7-0-3-0-|

Gb|------------------|
Db|------------------|
Ab|--7--7--7---------|
Eb|00-00-00-0-4-5-6-7|

Gb|--------------------------------|
Db|------------------------9-7-----|
Ab|----------------------------9-7-|
Eb|-7-7-0-7-5-6-7-0-7-0-7----------|

Gb|-----------------------------|-------------|------------------------------------------|
Db|-----------------------------|-------------|---------------2-3-4-4-4-4--4-2---------9-|
Ab|-7-5---5-7-0-7-7-5-----------|-------------|--------------------------------4-0-2v-/--|
Eb|-----7-------------7-4-5-6-7-|-7-7-7-7-7-7-|-2-2-2-2-2-2-2----------------------------|

[Breakdown] (03:25)
Gb|------------------------------------------------|
Db|------------------------------------------------|
Ab|------------------------------------------------|
Eb|-0-0-0-1-1-1-2--1--2--3--2-2-2-3-3-3-4--3--4--5-|

Gb|-------------------|
Db|-------------------|
Ab|-777-666-555-4-3-2-| 
Eb|-------------------|(x10)

Gb|---------------------|
Db|---------------------|
Ab|---------------------|
Eb|-2-1-2-3-5-4-5-6-0-8-|

[Final Chorus] (03:51)
Gb|-----------------------|-----------------|
Db|-----------------------|-----------------|
Ab|---------------5-5-5-5-|-7-7-5-5---------| 
Eb|-8-8-8-8-0-3-0---------|---------6-6-3-0-|(x3)

[Outro] (04:15)
Gb|-----------------------|
Db|-----------------------|
Ab|---------------5-5-5-5-|
Eb|-8-8-8-8-0-3-0---------|

Gb|------------------------||
Db|------------------------||
Ab|-7-5----------------7---||
Eb|-----6-5-3-0-5-3-0--0---||



************************************

| b  Bend
| \  Slide down
| /  Slide up
| v  vibrato

************************************

            
            
Suggest correction
Creating personal tab
Creating personal tab
You can edit any tab online and save it as your Personal.

You can edit, replace or remove any tab part or add personal notes – all changes will be seen only by you.

Personal tabs can be accessed anytime from any device, even offline.
Learn more »
comments
print report bad tab
8 comments total. Showing first comments.
+2 reply
Metal_NZ_FTW 258 Jun 20, 2010 02:27 PM

oh yeah the timings i have for the song are based on the master track, sorry i didnt add that in

+2 reply
thewickerman696 10 Jun 22, 2010 09:49 PM

nice tab man, pretty much perfect :)

+1 reply
Metal_NZ_FTW 258 Jun 25, 2010 02:29 PM

alright this part is wrong sorry guys
Gb|---------------------|
Db|---------------------|
Ab|---------------------|
Eb|-0-2-3-2-3-4-5-4-5-6-|

its actually:
Gb|--------------------------------|
Db|--------------------------------|
Ab|--------------------------------|
Eb|-000222333222333444555444555666-|

guest
You may want to rate the tab now too:
select rating
Wanna post a correction for this tab? Suggest correction