Oops, an error
Loading. Please wait.

Wild Horses Live tab

version 3
version 3

Whole song

  • Actually contains the 'intro-part' of the song, th... Show more

Interactive

2,509 views 18 this week
no commentswrite comment
1 2 3 4 5
2 more votes to show rating
add to favorites
×
Save as Personal and add changes to this tab that will be seen only by you. Learn more ›
×
You can save this tab as Personal to edit and correct it or add notes. All changes will be seen only by you. Learn more »
launch autoscroll
font size
0
reset
how to read this tab
guitar tuner
backing track
0:00
0:00
edit
Autoscroll
slow
fast
+/-
esc
set tempo
stop
About this tab version
Actually contains the 'intro-part' of the song, the part with the response riffing. Tabs for the solo are overall much more accurate. Was this info helpful? Yes No
Live in Tokyo 1992 - https://www.youtube.com/watch?v=vQ2doH0s1DQ

A Guns N' Roses cover of the Rolling Stones classic 'Wild Horses', originally written by Keith Richards and
Mick Jagger, as played at their show in Tokyo in 1992. 


[Intro]

[Riff 1]

eb|------15-------------------------------------------------------------------------15-----|
Bb|---------15-------------------------------------------------------------------------15--|
Gb|14b16-------16r14-12----12----------------------------------------12h14p12-14b16--------|
Db|---------------------14----14-13-12-------------------------12h14-----------------------|
Ab|------------------------------------14-13-12\10----10-12/14-----------------------------|
Eb|------------------------------------------------12--------------------------------------|

eb|---------15|
Bb|--------15-|
Gb|16r14-12---|
Db|-----------|
Ab|-----------|
Eb|-----------|


[Riff 2]

eb|3---------------------------------------------------------------------------------------| 
Bb|--3-------------------------------------------------------------------------------------| 
Gb|----2b3-2-0-----0---0-----0-----0---0---0---0----0---0---0---0---0---0---0---0-----0----|
Db|------------0h2---0---0h2---2/5---5---5---9---10---9---7---5---4---5---4---2---0h2---0h2| 
Ab|----------------------------------------------------------------------------------------|
Eb|----------------------------------------------------------------------------------------| 

eb|-----------------------|
Bb|----------------------0|
Gb|0---0-----0-----0-----0|
Db|--0-------------------0|
Ab|------0h2---0h2---0h2-2|
Eb|-----------------------|


[Riff 3]

eb|-------------------------------3|
Bb|/3-3-1-0-1-0-------------------0|
Gb|/4-4-2-0-2-0---0-3r2-0---------0|
Db|-------------2---------2-0-----0|
Ab|---------------------------2---2|
Eb|-----------------------------3-3|


[Riff 4]

eb|----3-------5-------6-------7-------8---8---8------10----10----10------8----------------|
Bb|---------------------------------------------------------------------------10b-10-8-10--|
Gb|3h4---4-4/5---5-5/6---6-6/7---7-7/9---9---9---9/11----11----11----11\9---9-------------9|
Db|----------------------------------------------------------------------------------------|
Ab|----------------------------------------------------------------------------------------|
Eb|----------------------------------------------------------------------------------------|

eb|------7-10---------10------|
Bb|8-10b------10b-8------10b12|
Gb|-----------------9---------|
Db|---------------------------|
Ab|---------------------------|
Eb|---------------------------|


[Riff 5]

                                                                          (PM--------------
eb|15-15-15p12-----------------------------------------------------------------------------|
Bb|------------15-15-15p12-----------------------------------------------------------------|
Gb|------------------------14p12-br14p12----12h14p12---------------------------------------|
Db|--------------------------------------14----------14-12h14p12----12h14p12---------------|
Ab|--------------------------------------------------------------14----------14-13-12-10-12|
Eb|----------------------------------------------------------------------------------------|

   --------------------|)
eb|-------------------------------------------15--------------------|
Bb|---------------------------------------------15------------------|
Gb|----------------------------12h14p12-14b16------16r14------------|
Db|----------------------12h14--------------------------------------|
Ab|-10-12-10----10-12/14--------------------------------------------|
Eb|----------12-----------------------------------------------------|

                                               
[Riff 6]                                                        

eb|---------------------------------------15-----------------------------------------------|
Bb|------------------------------------------15--------------------------------------------|
Gb|------------14----12h14p12----12-14b16-------16r14p12-14p12-------br14p12-14p12---------|
Db|------12h14----14----------14-------------------------------14p12---------------14p12---|
Ab|13h14-----------------------------------------------------------------------------------|
Eb|----------------------------------------------------------------------------------------|

                                                             
eb|--------------------------15------------------------------------------------------------|
Bb|-----------------------------15---------------------------------------------------------|
Gb|br14p12-14p12-------14b16-------16r14p12-14p12-------12-------12-------12---------------|
Db|--------------14p12----------------------------14p12----12h14---------------------------|
Ab|-----------------------------------------------------------------13h14----14p12\10-12p10|
Eb|----------------------------------------------------------------------------------------|

eb|------------------------------------------------------|
Bb|------------------------------------------------------|
Gb|----12-12-12------------------------------------------|
Db|-------------12-12-12-12-12-12-12-12-9-9-9-9-9-9------|
Ab|-------------------------------------------------10-10|
Eb|-12---------------------------------------------------|


[Riff 7]

eb|--------------------|
Bb|13-12---6-5h6-5---3-|
Gb|12-12---5-5---5---0-|
Db|12-12---5-5---5---0-|
Ab|--------------------|
Eb|--------------------|


[Riff 8]

eb|---15-------15-------15-------15-------15-------15-------15-------15-----------------|
Bb|13----13-12----12-13----13-12----12-13----13-15----13-12----12-13----13-12\10-pbr10p8|
Gb|-------------------------------------------------------------------------------------|
Db|-------------------------------------------------------------------------------------|
Ab|-------------------------------------------------------------------------------------|
Eb|-------------------------------------------------------------------------------------|
                                          
eb|-------------------------------------------------------------------------------------|
Bb|---10-8\7-8-7\5-7-5\3-5-3-----3------------------------------------------------------|
Gb|-9------------------------5-4---5-4\2~(p0)----0---0-----0-----0-----0-----0---0-----0|
Db|--------------------------------------------2---0---0h2---2/5---5\2---0h2---0--------|
Ab|--------------------------------------------------------------------------------0h2--|
Eb|-------------------------------------------------------------------------------------|

eb|-------------------------------2|
Bb|-----------------------------0--|
Gb|-----0-------0-----0------------|
Db|--------------------------------|
Ab|-2/5---5-5\2---2h3---3-3-2------|
Eb|---------------------------3----|



[Solo] 

At 1:54
   G                              Am                             G
eb|---------------------------------------10-10-10--10-10-10\8-8-7~------------------------|
Bb|---------------------------------------10-10-10--10-10-10\8-8-8~------------------------|
Gb|-------------------------------------------------------------(7~)-----------------------|     
Db|----------------------------------------------------------------------------------------|
Ab|----------------------------------------------------------------------------------------|
Eb|----------------------------------------------------------------------------------------|

        Am                               G                              Bm
eb|-----10-10-10--10-10-10--10-10-10\8-8-7~----------------------------------------10------|
Bb|-----10-10-10--10-10-10--10-10-10\8-8-8~-------------------pbr10p8---10b-----------pbr10|
Gb|-------------------------------------(7~)--------------------------9--------------------|
Db|----------------------------------------------------------------------------------------|
Ab|----------------------------------------------------------------------------------------|
Eb|----------------------------------------------------------------------------------------|

            G                             Bm                             G
eb|---------------------------------10------------------10-------------------------10------|
Bb|8---8h10-8~------------pbr10-8------10b12---------------pbr10-8----10/12~----------10b12|
Db|--9----------------------------9--------------------------------9-----------------------|
Gb|----------------------------------------------------------------------------------------|
Ab|----------------------------------------------------------------------------------------|
Eb|----------------------------------------------------------------------------------------|

              Am                             C                              G
eb|-10-----------------------8p7-8p7-8p7---------------------------------------------------|
Bb|----10b12--10~------------------------8---------------8-pbr10-8---10/12-12~-------------|
Gb|----------------------------------------7h9~------7h9-----------9-----------------------|
Db|----------------------------------------------7h9---------------------------------------|
Ab|----------------------------------------------------------------------------------------|
Eb|----------------------------------------------------------------------------------------|

                   D                              Bm                             G
eb|---------------------------------------------------------------------15-----------------|
Bb|-13p12-13p12-13-12~---12\10-10-10~------------17b19-17b19~--------------15b17-15~-13h15-|
Gb|----------------------------------------------------------------------------------------|
Db|----------------------------------------------------------------------------------------|
Ab|----------------------------------------------------------------------------------------|
Eb|----------------------------------------------------------------------------------------|

                            Bm                                       G
eb|----------------------------------------------------------------------------------------|
Bb|-------------------------15~-------------------15~--------------------------------------|
Gb|14b-14-12h14p12----12----pbr14b16--14b-14b-14b----14b-pbr14-12----12--12----12h14-12-12~|
Db|----------------14---------------------------------------------14--------14-------------|
Ab|----------------------------------------------------------------------------------------|
Eb|----------------------------------------------------------------------------------------|
                       Quickly release 
                       and 'rebend'.
              Am                                C
eb|15-----15-------------------------------------------------------------------------------|
Bb|---15b---pbr15b17---pbr15--13\12-13p12----------------------12-15-----12----------------|
Gb|---------------------------------------12------------12-14b-------14b----pb14-14p12-----|
Db|------------------------------------------12h14-14~---------------------------------14--|
Ab|----------------------------------------------------------------------------------------|
Eb|----------------------------------------------------------------------------------------|

   G                                                       D
eb|----------------------------------------------------------------------------------------|
Bb|------15----15----15----15----15-15-------------------------------------------------15--|
Gb|14/16----16----16----16----16-------16p14\12-14-12-14~-14~--------------12h14-14/16-----|
Db|------------------------------------------------------------------12h14-----------------|
Ab|------------------------------------------------------------13h14-----------------------|
Eb|----------------------------------------------------------------------------------------|

      Am                                            C
eb|--------------------------------------------------------------------------10------------|
Bb|---15--------------------17-17-17-15-15\13-13\12-12\10-10\8-8h10-10-10/12----12\10p8-10-|
Gb|16----16-16-14-14~-14-14----------------------------------------------------------------|
Db|----------------------------------------------------------------------------------------|
Ab|----------------------------------------------------------------------------------------|
Eb|----------------------------------------------------------------------------------------|

         G                               F                     C
eb|--10b-10-9-8----8-9-10------------------------10----------------------------------------|
Bb|8------------10--------10b-10-8-10---10~--8------10b-8h10---8~--3h5-3h5-3h5-3h5-3h5-3h5-|
Gb|-----------------------------------9--------9-------------9-----------------------------|
Db|----------------------------------------------------------------------------------------|
Ab|----------------------------------------------------------------------------------------|
Eb|----------------------------------------------------------------------------------------|
                         Couldn't     drag       me       away
                                                                          
            Am                      C                                          G
eb|-------------------3-5-5/7-7-7-7-7--7-8-10-8-7-10-8-7-10-8-7--12-10-8-------------------|
Bb|-3h5-3h5-3h5---3-5----------------------------------------------------12-10-13-12-10-13-|
Gb|----------------------------------------------------------------------------------------|
Db|----------------------------------------------------------------------------------------|
Ab|----------------------------------------------------------------------------------------|
Eb|----------------------------------------------------------------------------------------|
                       Wild,         wild         horses
 
                  F                   C                    G
eb|----------------------------------------------------------|
Bb|-12-10\8-10-8-7-8-7\5-7-5\3-5-3---------------------------|
Gb|--------------------------------5-4-5~~-------------------|
Db|----------------------------------------------------------|
Ab|----------------------------------------------------------|
Eb|----------------------------------------------------------|
               Couldn't drag me away...


************************************

| h   Hammer on 
| p   Pull-off
| r   Release
| b   Bend
| br  Bend release
| pbr Pre-bend release
| /   Slide up
| \   Slide down
| PM  Palm mute
| ~   Vibrato
| ()  Optional

************************************

            
            
Suggest correction
Creating personal tab
Creating personal tab
You can edit any tab online and save it as your Personal.

You can edit, replace or remove any tab part or add personal notes – all changes will be seen only by you.

Personal tabs can be accessed anytime from any device, even offline.
Learn more »
Give kudos to tab author, rate the tab!
1 2 3 4 5
comments
print report bad tab
guest
You may want to rate the tab now too:
select rating
Wanna post a correction for this tab? Suggest correction