Oops, an error
Loading. Please wait.

Infinity 2008 bass

version 2
version 2

Whole song

Interactive

675 views 3 this week
no commentswrite comment
1 2 3 4 5
3 more votes to show rating
add to favorites
×
Save as Personal and add changes to this tab that will be seen only by you. Learn more ›
×
You can save this tab as Personal to edit and correct it or add notes. All changes will be seen only by you. Learn more »
launch autoscroll
font size
0
reset
guitar tuner
edit
Autoscroll
slow
fast
+/-
esc
set tempo
stop
Tuning: Eb Ab Db Gb (D# G# C# F#)

Intro - Root notes behind horn

Gb|--------------------------------|
Db|--------------------------------|
Ab|---------2~---------------------|
Eb|-0~--4~------2~-----------------|


Intro - Horn (Tabbed on the lower octave, but probably sounds nicer on the higher octave) the notes
in parantheses are ghost/subtle notes and aren't audible but do at fluidity to the actual melody.

Gb|-(4)//6~-8-9~--------6-8~------------6-8~------4/6~--6~-----|
Db|----------------4/(6)-----------4/(6)-------(4)------4~-----|
Ab|------------------------------------------------------------|
Eb|------------------------------------------------------------|


Main Rhythm

G|----------------------------------------8~-----------4~-3~------------|
D|--------------------------6~------------9~-----------4~-4~------------|
A|----------------------------------------------------------------------|
E|000000000-0~--444444444-4-4~--777777777-7~--22222222-2~-2~-2-22-3-4-6-|

If the slide isn't played, then it's this

Riff 2

G|----------------------------------------8~-----------6~-6~-------|
D|--------------------------6~------------9~-----------9~-9~-4-6---|
A|-----------------------------------------------------------------|
E|000000000-0~--444444444-4-4~--777777777-7~--77777777-7~-7~-2-4---|

I hope this clarifies some of it. There's some more melodies/chords that could be layered on top of these
that are audible, but this should give you a head start in figuring out the other voicings. Maybe some time
again this year I'll come back and add them to here. Cheers.

            
            
Suggest correction
Creating personal tab
Creating personal tab
You can edit any tab online and save it as your Personal.

You can edit, replace or remove any tab part or add personal notes – all changes will be seen only by you.

Personal tabs can be accessed anytime from any device, even offline.
Learn more »
Give kudos to tab author, rate the tab!
1 2 3 4 5
comments
print report bad tab
guest
You may want to rate the tab now too:
select rating
Wanna post a correction for this tab? Suggest correction