Oops, an error
Loading. Please wait.

Fuerza Natural bass

version 1
version 1

Whole song

Interactive

70 views 1 this week
no commentswrite comment
1 2 3 4 5
3 more votes to show rating
add to favorites
×
Save as Personal and add changes to this tab that will be seen only by you. Learn more ›
×
You can save this tab as Personal to edit and correct it or add notes. All changes will be seen only by you. Learn more »
launch autoscroll
font size
0
reset
guitar tuner
edit
Autoscroll
slow
fast
+/-
esc
set tempo
stop
Canción: Fuerza Natural
Álbum: Fuerza Natural
Compositor: Gustavo Cerati; Benito Cerati
Año: 2009



[Intro]
G|-------|
D|-17----|
A|----17-|
E|-------| (x4)
                      __ 
G|---------------|      |
D|---------------|      |
A|----7-4------5-|      |
E|-5------5-3----|(x3)  |
                        | (x2)
G|--------------|       |
D|--------------|       |
A|---4-5-7----5-|       |
E|-5-------3----|     __|

[Verse] 
"Puedo equivocarme..."
G|-------------------------------------|
D|----------------------------4--------|
A|---------3--3-3--5--5-5-5h7----------|
E|-0--0-0-----------------------5--5-5-| (x2)

"Me dirán..."
G|--------------------------------|
D|--------------------------------|
A|-----------------5--5-5--5--5-5-|
E|-6--6-6--3--3-3-----------------|

"Y me eche a la suerte"
G|---------------|   
D|---------------|     
A|----7-4------5-|     
E|-5------5-3----| (x3)

G|--------------|     
D|--------------|      
A|---4-5-7----5-|      
E|-5-------3----|  

G|----------------|
D|-17-17-------14-|
A|-------19-17----|
E|----------------|

[Verse] 
"Nena no volvió..."
G|----------------------------------|
D|-------------------------4--------|
A|------3--3-3--5--5-5-5h7----------|
E|-0-0-----------------------5--5-5-|

"Chispas de oscuridad..."
G|-------------------------------------| G|-------------|
D|----------------------------4--------| D|-17-17-------|
A|---------3--3-3--5--5-5-5h7----------| A|-------19-17-|
E|-0--0-0-----------------------5--5-5-| E|-------------|

"Cambiara..."
G|--------------------------------|
D|--------------------------------|
A|-----------------5--5-5--5--5-5-|
E|-6--6-6--3--3-3-----------------|

[Bridge]
G|-------------------------------------------10-------12-|
D|-------------------------------------10h12----10h12----|
A|-10-10-10-10-10-10-10-10-10-10-10-10-------------------|
E|-------------------------------------------------------|

G|----|   G|-----------------------|  
D|----|   D|-3-2-0--0-2----0-2-----|
A|-10-|   A|------------2------0-5-|       
E|----|   E|-----------------------|      

         "Cada vez mas fuerte"
G|---|   G|--------|--------|--------|------|
D|---|   D|--------|--------|--------|------|
A|---|   A|----3---|----3---|----3---|----3-|
E|-3-|   E|-1----3-|-1----3-|-1----3-|-1----|

"Voy pisando..."  "Naves como nubes..."
G|--------|       G|----------------|
D|--------|       D|----------------|
A|--------|       A|---------2--2-4-|
E|-1--1-3-|(x4)   E|-3--3-5---------| (x2)

Mas azul es la luz 
Si me alejo 
Fuerza natural 
                      __
G|---------------|      |
D|---------------|      |                      
A|----7-4------5-|      |
E|-5------5-3----| (x3) |
                        | x muchas veces       
G|--------------|       |
D|--------------|       |
A|---4-5-7----5-|       |
E|-5-------3----|     __|

*La segunda vez que Cerati dice "me perdí en el viaje" termina con esto
G|-------------|
D|-17-17-------|
A|-------19-17-|
E|-------------|

y después sigue normal

[Outro]
G|-------|
D|-17----|
A|----17-|
E|-------| (x2)

Ojalá se entienda y hay que escuchar bien la canción para los tiempos y eso.


************************************

| h  Hammer-on

************************************

            
            
Suggest correction
Creating personal tab
Creating personal tab
You can edit any tab online and save it as your Personal.

You can edit, replace or remove any tab part or add personal notes – all changes will be seen only by you.

Personal tabs can be accessed anytime from any device, even offline.
Learn more »
Give kudos to tab author, rate the tab!
1 2 3 4 5
comments
print report bad tab
guest
You may want to rate the tab now too:
select rating
Wanna post a correction for this tab? Suggest correction