Oops, an error
Loading. Please wait.

The Last Of Us Main Theme ukulele

3,751 views 117 this week
no commentswrite comment
1 2 3 4 5
x 8
add to favorites
×
Save as Personal and add changes to this tab that will be seen only by you. Learn more ›
×
You can save this tab as Personal to edit and correct it or add notes. All changes will be seen only by you. Learn more »
launch autoscroll
font size
0
reset
transpose
0
reset
display chords
guitar tuner
edit
Autoscroll
slow
fast
+/-
esc
set tempo
stop
Author
Difficulty
About this tab version
This is a ukulele tab for the main theme from the last of us that has the correct melody played in the simplest way possible. Was this info helpful? Yes No
Strumming
There is no strumming pattern for this song yet. and get +5 IQ
Song: The Last of Us Theme
Artist: Gustavo Santaolalla

This is a ukulele tab for the last of us main theme.
You need to tune the C string down to a B to get the proper song tone.

[Intro]

A|-------------------------------------------------------------|
E|-------0-----0-----0-----0-----0-----0-----0-----0-----------|
B|-----0-----0-----0-----0-----0-----0-----0-----0-------------| x2
G|---0-----0-----0-----0-----0-----0-----0-----0---------------|

A|-------------------------------------------------------------|
E|-------0--0---0------0--2---0------0-----0-----0-----0-------|
B|-----0------0------0------0------0-----0-----0-----0---------|
G|---0-------------2-------------0-----0-----0-----0-----------|

A|-------------------------------------------------------------|
E|-------0--0---0-----0--2---0--------0-----0-----0-----0------|
B|-----0------0-----0------0--------0-----0-----0-----0--------|
G|---0------------2-------------0/4-----4-----4-----4----------|

A|-------------------------------------------------------------|
E|-------0--0---0------0--2---0------0-----0-----0-----0-------|
B|-----0------0------0------0------0-----0-----0-----0---------|
G|---0-------------2-------------0-----0-----0-----0-----------|

A|-------------------------------------------------------------|
E|-------0-----0-----0--0---0-------0--0---0--0---0--0---0-----|
B|-----0-----0-----0------0---3/5-5------0------0------0-------|
G|---3-----2-----0---------------------------------------------|

This is the main melody of the theme. Just repeat until satisfied. 

            
            
Suggest correction
Creating personal tab
Creating personal tab
You can edit any tab online and save it as your Personal.

You can edit, replace or remove any tab part or add personal notes – all changes will be seen only by you.

Personal tabs can be accessed anytime from any device, even offline.
Learn more »
comments
print report bad tab
guest
You may want to rate the tab now too:
select rating
Wanna post a correction for this tab? Suggest correction