Oops, an error
Loading. Please wait.

Rocketship tab

version 1
version 1

Whole song

by Guster
6,310 views 1 this week
2 commentsread comments
1 2 3 4 5
x 3
add to favorites
×
Save as Personal and add changes to this tab that will be seen only by you. Learn more ›
×
You can save this tab as Personal to edit and correct it or add notes. All changes will be seen only by you. Learn more »
launch autoscroll
font size
0
reset
how to read this tab
guitar tuner
edit
Autoscroll
slow
fast
+/-
esc
set tempo
stop
this tab was created using Tab Studio 1.0     http://www.geocities.com/tabstudio/
Artist : Guster
Song : Rocketship
Album : Goldfly
Tuning : Normal EADGBE
Tabbed By : Nick Dennis
E-mail Address: Tabstudio@hotmail.com

great song that is very simple to play.


Chords
     Bm  D   G   F#  A
e  |-2---2---3---2---0-|
B  |-3---3---3---2---2-|
G  |-4---2---0---3---2-|
D  |-4---0---0---4---2-|
A  |---------2---4---0-|
E  |---------3---2-----|

Intro
e  |-----7---5---5-----------------|
B  |---3-----------7h8-7-5-7-5-3-2-|
G  |-4-----7---7-------------------|
D  |-------------------------------|
A  |-------------------------------|
E  |-------------------------------|

e  |-----7---5---5-----------------|
B  |---3-----------7h8-7-5-5-3-2-0-|
G  |-4-----7---7-------------------|
D  |-------------------------------|
A  |-------------------------------|
E  |-------------------------------|

Verse:

Chord Progression: Bm D G F#


They'll find it on the stairs.
Politely placed it there.
Been so unkind without a hint,
a warning sign for them.
Read my apology.
Their hope of disbelief.
But no denial changes things.
No remedy ahead.


Pre-Chorus:


G                       A
   I am not to be martyred,

                        G
   I am not to be worshipped.

                        A
   Did it not to be strong strong strong

G                    A
   I implicate no others in this crime.

Chorus:

The chorus is just the same old: Bm D G F#

I'm off on a rocketship
prepared for something new.
I'm off on a rocketship
estatic with the view.
I am scared of the things upcoming,
and I want for the things I don't have.
Cannot stand to be one of many,
I'm not what they are.


Then back to the verse: Bm D G F#

Will gather in my name.
The mourning will begin.
And all or nothing over there
is teasing me again.


Precourus 1 more time then the Chorus again, but this time the chorus repeats the second half like this:

I'm off on a rocketship
prepared for something new.
I'm off on a rocketship
estatic with the view.
I am scared of the things upcoming,
and I want for the things I don't have.
Cannot stand to be one of many,
I'm not what they are.
I am scared of the things upcoming,
and I want for the things I don't have.
Cannot stand to be one of many,
I'm not what they are.

            
            
Suggest correction
Creating personal tab
Creating personal tab
You can edit any tab online and save it as your Personal.

You can edit, replace or remove any tab part or add personal notes – all changes will be seen only by you.

Personal tabs can be accessed anytime from any device, even offline.
Learn more »
Give kudos to tab author, rate the tab!
1 2 3 4 5
comments
print report bad tab
2 comments total.
0 reply
hrdcore_kenny 15 Jul 08, 2010 02:30 PM

Intro is this for sure:

e |-----7---5---5-------------------|
B |--0------------7h8---8---7-5-3-2-|
G |----7---7---7------7---7---------|
D |---------------------------------|
A |---------------------------------|
E |---------------------------------|

e |-----7---5---5--------------5-3-2|
B |--0------------7h8---8--7-8------|
G |----7---7---7------7---7---------|
D |---------------------------------|
A |---------------------------------|
E |---------------------------------|

0 reply
hrdcore_kenny 15 Jan 27, 2011 03:57 PM

Nevermind, that previous comment is wrong. I posted a correct intro tab.

guest
Wanna post a correction for this tab? Suggest correction