Oops, an error
Loading. Please wait.

Man Funk bass

by guts
49 views 6 this week
no commentswrite comment
1 2 3 4 5
2 more votes to show rating
add to favorites
×
Save as Personal and add changes to this tab that will be seen only by you. Learn more ›
×
You can save this tab as Personal to edit and correct it or add notes. All changes will be seen only by you. Learn more »
launch autoscroll
font size
0
reset
guitar tuner
edit
Autoscroll
slow
fast
+/-
esc
set tempo
stop
Artist: Guts
Song: Man Funk
Tuning - Standard
Time - 4/4 92 bpm
tabbed by electricbunny

[Intro]
G|--------------------------------|--------------------------------|
D|--------------------------------|--------------------------------|
A|1-------1-------1-------1-------|1-------1-------1-------1---0---|
E|----------------------4-----4---|----------------------4---------|
 
G|--------------------------------|--------------------------------|
D|--------------------------------|--------------------------------|
A|--------------------------------|--------------------------------|
E|4-------4-------4-------4---2---|4-------4-------4-----2-4---4---|
 
G|--------------------------------|--------------------------------|
D|--------------------------------|--------------------------------|
A|1-------1-------1-------1-------|1-------1-------1-------1---0---|
E|----------------------4-----4---|----------------------4---------|
 
G|--------------------------------|--------------------------------|
D|--------------------------------|--------------------------------|
A|--------------------------------|--------------------------------|
E|4-------4-------4-------4---2---|4-------4-------4-----2-4---4---|
 
[Verse] 
G|--------------------------------|--------------------------------|
D|--------------------------------|--------------------------------|
A|1-------1-------1-------1-------|1-------1-------1-------1---0---|
E|----------------------4-----4---|----------------------4---------|
 
G|--------------------------------|--------------------------------|
D|--------------------------------|--------------------------------|
A|--------------------------------|--------------------------------|
E|4-------4-------4-------4---2---|4-------4-------4-----2-4---4---|
 
G|--------------------------------|--------------------------------|
D|--------------------------------|--------------------------------|
A|1-------1-------1-------1-------|1-------1-------1-------1---0---|
E|----------------------4-----4---|----------------------4---------|
 
G|--------------------------------|--------------------8---10------|
D|--------------------------------|------------------10------------|
A|--------------------------------|----------8-11--11--------------|
E|4-------4-------4-------4---2---|4-------11----------------------|
 
G|--------------------------------|--------------------------------|
D|--------------------------------|--------------------------------|
A|1-------1-------1-------1-------|1-------1-------1-------1---0---|
E|----------------------4-----4---|----------------------4---------|
 
G|--------------------------------|--------------------------------|
D|--------------------------------|--------------------------------|
A|--------------------------------|--------------------------------|
E|4-------4-------4-------4---2---|4-------4-------4-----2-4---4---|
 
G|--------------------------------|--------------------------------|
D|--------------------------------|--------------------------------|
A|1-------1-------1-------1-------|1-------1-------1-------1---0---|
E|----------------------4-----4---|----------------------4---------|
 
G|--------------------------------|--------------------------------|
D|--------------------------------|--------------------------------|
A|--------------------------------|--------------------------------|
E|4-------4-------4-------4---2---|4-------4-------4-----2-4---4---|
 
G|--------------------------------|--------------------------------|
D|--------------------------------|--------------------------------|
A|1-------1-------1-------1-------|1-------1-------1-------1---0---|
E|----------------------4-----4---|----------------------4---------|
 
G|--------------------------------|--------------------------------|
D|--------------------------------|--------------------------------|
A|--------------------------------|--------------------------------|
E|4-------4-------4-------4---2---|4-------4-------4-----2-4---4---|
 
G|--------------------------------|--------------------------------|
D|--------------------------------|--------------------------------|
A|1-------1-------1-------1-------|1-------1-------1-------1---0---|
E|----------------------4-----4---|----------------------4---------|
 
G|--------------------------------|--------------------8---10------|
D|--------------------------------|------------------10------------|
A|--------------------------------|----------8-11--11--------------|
E|4-------4-------4-------4---2---|4-------11----------------------|
 
G|6-6---5-----4-4---3-------------|------------5-5---8-----6-6-----|
D|------------------------7-7-----|6-6---8-------------------------|
A|--------------------------------|--------------------------------|
E|--------------------------------|--------------------------------|
 
[Pre-Chorus]  
G|--------------------------------|------------1-2-3-------2-------|
D|--------------------------------|3-------------------------------|
A|1---------------4---------------|--------------------------------|
E|--------------------------------|--------------------------------|
 
G|----------------------------5-6-|8---5---------6-8---------------|
D|6-------------------------------|--------------------------------|
A|--------------------------------|--------------------------------|
E|--------------------------------|--------------------------------|
 
G|--------------------------------|------------1-2-3-------2-------|
D|--------------------------------|3-------------------------------|
A|1---------------4---------------|--------------------------------|
E|--------------------------------|--------------------------------|
 
G|----------------------------5-6-|8---5---------5-8---------------|
D|6-------------------------------|--------------------------------|
A|--------------------------------|--------------------------------|
E|--------------------------------|--------------------------------|
 
[Chorus] 
G|--------------------------------|--------------------------------|
D|--------------------------------|--------------------------------|
A|1-------1-------1-------1-------|1-------1-------1-------1---0---|
E|----------------------4-----4---|----------------------4---------|
 
G|--------------------------------|--------------------------------|
D|--------------------------------|--------------------------------|
A|--------------------------------|--------------------------------|
E|4-------4-------4-------4---2---|4-------4-------4-----2-4---4---|
 
G|--------------------------------|--------------------------------|
D|--------------------------------|--------------------------------|
A|1-------1-------1-------1-------|1-------1-------1-------1---0---|
E|----------------------4-----4---|----------------------4---------|
 
G|--------------------------------|--------------------------------|
D|--------------------------------|--------------------------------|
A|--------------------------------|--------------------------------|
E|4-------4-------4-------4---2---|4-------4-------4-----2-4---4---|
  
[Verse]
G|--------------------------------|--------------------------------|
D|--------------------------------|--------------------------------|
A|1-------1-------1-------1-------|1-------1-------1-------1---0---|
E|----------------------4-----4---|----------------------4---------|
 
G|--------------------------------|--------------------------------|
D|--------------------------------|--------------------------------|
A|--------------------------------|--------------------------------|
E|4-------4-------4-------4---2---|4-------4-------4-----2-4---4---|
 
G|--------------------------------|--------------------------------|
D|--------------------------------|--------------------------------|
A|1-------1-------1-------1-------|1-------1-------1-------1---0---|
E|----------------------4-----4---|----------------------4---------|
 
G|--------------------------------|--------------------8---10------|
D|--------------------------------|------------------10------------|
A|--------------------------------|----------8-11--11--------------|
E|4-------4-------4-------4---2---|4-------11----------------------|
 
[Bridge] 
G|--------------------------------|--------------------------------|
D|--------------------------------|--------------------------------|
A|1-------1-------1-------1-------|1-------1-------1-------1---0---|
E|----------------------4-----4---|----------------------4---------|
 
G|--------------------------------|--------------------------------|
D|--------------------------------|--------------------------------|
A|--------------------------------|--------------------------------|
E|4-------4-------4-------4---2---|4-------4-------4-----2-4---4---|
 
G|--------------------------------|--------------------------------|
D|--------------------------------|--------------------------------|
A|1-------1-------1-------1-------|1-------1-------1-------1---0---|
E|----------------------4-----4---|----------------------4---------|
 
G|--------------------------------|--------------------------------|
D|--------------------------------|--------------------------------|
A|--------------------------------|--------------------------------|
E|4-------4-------4-------4---2---|4-------4-------4-----2-4---4---|
 
[Pre-Chorus] 
G|--------------------------------|------------1-2-3-------2-------|
D|--------------------------------|3-------------------------------|
A|1---------------4---------------|--------------------------------|
E|--------------------------------|--------------------------------|
 
G|----------------------------5-6-|8---5---------5-8---------------|
D|6-------------------------------|--------------------------------|
A|--------------------------------|--------------------------------|
E|--------------------------------|--------------------------------|
 
G|--------------------------------|------------1-2-3-------2-------|
D|--------------------------------|3-------------------------------|
A|1---------------4---------------|--------------------------------|
E|--------------------------------|--------------------------------|
 
G|----------------------------5-6-|8---5---------5-8---------------|
D|6-------------------------------|--------------------------------|
A|--------------------------------|--------------------------------|
E|--------------------------------|--------------------------------|
  
[Chorus]
G|--------------------------------|--------------------------------|
D|--------------------------------|--------------------------------|
A|1-------1-------1-------1-------|1-------1-------1-------1---0---|
E|----------------------4-----4---|----------------------4---------|
 
G|--------------------------------|--------------------------------|
D|--------------------------------|--------------------------------|
A|--------------------------------|--------------------------------|
E|4-------4-------4-------4---2---|4-------4-------4-----2-4---4---|
 
G|--------------------------------|--------------------------------|
D|--------------------------------|--------------------------------|
A|1-------1-------1-------1-------|1-------1-------1-------1---0---|
E|----------------------4-----4---|----------------------4---------|
 
G|--------------------------------|--------------------------------|
D|--------------------------------|--------------------------------|
A|--------------------------------|--------------------------------|
E|4-------4-------4-------4---2---|4-------4-------4-----2-4---4---|
 
G|--------------------------------|--------------------------------|
D|--------------------------------|--------------------------------|
A|1-------1-------1-------1-------|1-------1-------1-------1---0---|
E|----------------------4-----4---|----------------------4---------|
 
G|--------------------------------|--------------------------------|
D|--------------------------------|--------------------------------|
A|--------------------------------|--------------------------------|
E|4-------4-------4-------4---2---|4-------4-------4-----2-4---4---|

            
            
Suggest correction
Creating personal tab
Creating personal tab
You can edit any tab online and save it as your Personal.

You can edit, replace or remove any tab part or add personal notes – all changes will be seen only by you.

Personal tabs can be accessed anytime from any device, even offline.
Learn more »
Give kudos to tab author, rate the tab!
1 2 3 4 5
comments
print report bad tab
guest
You may want to rate the tab now too:
select rating
Wanna post a correction for this tab? Suggest correction