Oops, an error
Loading. Please wait.

Sick Of You bass

version 2
version 2

Whole song

Interactive

by GWAR
3,209 views 9 this week
1 commentread comment
1 2 3 4 5
2 more votes to show rating
add to favorites
×
Save as Personal and add changes to this tab that will be seen only by you. Learn more ›
×
You can save this tab as Personal to edit and correct it or add notes. All changes will be seen only by you. Learn more »
launch autoscroll
font size
0
reset
guitar tuner
backing track
0:00
0:00
edit
Autoscroll
slow
fast
+/-
esc
set tempo
stop
Author
Difficulty
SICK OF YOU - GWAR
 
Tuning:EADG


Intro/Verse
G|---------------------------------------------|
D|---------------------------------------------|
A|---------------------------------------------|
E|-0-22222222-0-22222222-0-22222222-0-22222222-|  X3

Chorus
G|---------------------------------------------|
D|---------------------------------------------|
A|-----44-5-4-2-0-----44-2-44------------------|
E|--22-------------22--------------------------|  X2

Verse
G|---------------------------------------------|
D|---------------------------------------------|
A|---------------------------------------------|
E|-0-22222222-0-22222222-0-22222222-0-22222222-|  X3

Chorus
G|---------------------------------------------|
D|---------------------------------------------|
A|-----44-5-4-2-0-----44-2-44------------------|
E|--22-------------22--------------------------| X2

Verse
G|---------------------------------------------|
D|---------------------------------------------|
A|---------------------------------------------|
E|-0-22222222-0-22222222-0-22222222-0-22222222-|

Breakdown
G|---------------------------------------------|
D|---------------------------------------------|
A|---------------------------------------------|
E|--/2-2-2-2-2-2-2-2-2-2-2-2-2-2-2-2-2-2-2-2-2-|  x1.5

G|--------------------------------------------|
D|--------------------------------------------|
A|--------------------------------------------|
E|--0-22-2-2-0-22-2-2-0-22-2-2-0-22-2-2-------|  X2

Verse
G|---------------------------------------------|
D|---------------------------------------------|
A|---------------------------------------------|
E|-0-22222222-0-22222222-0-22222222-0-22222222-|  X2

Chorus
G|---------------------------------------------|
D|---------------------------------------------|
A|-----44-5-4-2-0-----44-2-44------------------|
E|--22-------------22--------------------------| X6


| /  slide up
| \  slide down
| h  hammer-on
| p  pull-off
| ~  vibrato
| +  harmonic
| x  Mute note

            
            
Suggest correction
Creating personal tab
Creating personal tab
You can edit any tab online and save it as your Personal.

You can edit, replace or remove any tab part or add personal notes – all changes will be seen only by you.

Personal tabs can be accessed anytime from any device, even offline.
Learn more »
Give kudos to tab author, rate the tab!
1 2 3 4 5
comments
print report bad tab
1 comment total.
0 reply
svend 10 Jul 30, 2007 07:23 PM

this song is awesome, and kind of easy to play.

guest
You may want to rate the tab now too:
select rating
Wanna post a correction for this tab? Suggest correction