Oops, an error
Loading. Please wait.

Kid Nothing Vs The Echo Factor tab

1,887 views 1 this week
3 commentsread comments
1 2 3 4 5
2 more votes to show rating
add to favorites
×
Save as Personal and add changes to this tab that will be seen only by you. Learn more ›
×
You can save this tab as Personal to edit and correct it or add notes. All changes will be seen only by you. Learn more »
launch autoscroll
font size
0
reset
how to read this tab
guitar tuner
edit
Autoscroll
slow
fast
+/-
esc
set tempo
stop
-------------------------------------------------------------------------------
             Kid Nothing Vs. The Echo Factor - Gym Class Heroes
-------------------------------------------------------------------------------
Tabbed by: Hostile Apostle

Please send suggestions and corrections to Mareed129@aol.com

Tuning: Standard

Intro
e|--------------------------------------------------|
B|--------------------------------------------------|
G|--------------------------------------------------|
D|--9-9/12--11--7--5~-4h5p4h5p4---4/9--9-7/11--5~---|
A|------------------------------5-------------------|
E|--------------------------------------------------|

e|--------------------------------------------------|
B|--------------------------------------------------|
G|--------------------------------------------------|
D|--4h5p4h5p4----4/9-7/11-5~-4h5p4h5p4----4/9-7/11--|
A|------------5------------------------5------------|
E|--------------------------------------------------|

e|--------------------------------------------------|
B|--------------------------------------------------|
G|--------------------------------------------------|
D|--5~-4h5p4h5p4------------------------------------|
A|---------------5----------------------------------|
E|--------------------------------------------------|

Pre-chorus
e|--------------------------------------------------|
B|--------------------------------------------------|
G|--------------------------------------------------|
D|--------------------------------------------------|x2
A|--5-5-5--5-5-5--5-5-5--4-4-4----------------------|
E|--------------------------------------------------|

e|--------------------------------------------------|
B|---------4/7\5---------5\0------------------------|
G|--------------------------------------------------|
D|------------------------------------------4\0-----|x2
A|--5-5-5---------5-5-5-------5-5-5--4-4-4----------|
E|--------------------------------------------------|

Chorus
e|--------------------------------------------------|
B|--12--15--14--10--12------------------------------|
G|--11--11--11--11--11------------------------------|
D|--12--12--12--12--12---9--------------------------|x4
A|-------------------------9-7-5\0------------------|
E|--------------------------------------------------|

Outro
e|--------------------------------------------------|
B|--------------------------------------------------|
G|--------------------------------------------------|
D|------5-4---5-4---4-------5-4---5-4---4-----------|
A|----------5-----5-------------5-----5-------------|
E|--3-------------------5---------------------------|

e|--------------------------------------------------|
B|--------------------------------------------------|
G|------------------------------0-------------------|
D|------5-4---5-4---4-----0-2-4---4-2-0-------------|
A|--2-------5-----5-----2---------------------------|
E|--------------------------------------------------|

The chords duing the chorus can also be played like this
but I'm pretty sure he plays it the other way on the record.
This way makes it sound a bit twangy but is slightly easier
to play.

e|--7--10-9--5--7--|
B|--7--7--7--7--7--|
G|--7--7--7--7--7--|
D|-----------------|
A|-----------------|
E|-----------------|

| PM Palm Mule
| /  Slide up
| \  Slide down
| b  Bend
| h  Hammer-on
| p  Pull-off
| ~  Vibrato
| +  Harmonic
| x  Mute note
===============================================================================

            
            
Suggest correction
Creating personal tab
Creating personal tab
You can edit any tab online and save it as your Personal.

You can edit, replace or remove any tab part or add personal notes – all changes will be seen only by you.

Personal tabs can be accessed anytime from any device, even offline.
Learn more »
Give kudos to tab author, rate the tab!
1 2 3 4 5
comments
print report bad tab
3 comments total.
0 reply
Sound Mind 536 Jan 01, 2010 08:09 AM

nice job man, 5 stars

0 reply
Black Rat 1214 40 Feb 02, 2010 03:09 AM

What kind of echo does this use? Is is it just a slapback echo? about 12.5ms?

0 reply
Hostile Apostle 288 Feb 05, 2010 01:31 PM

To be honest I'm not to sure. I figured this one out with an acoustic guitar.

guest
You may want to rate the tab now too:
select rating
Wanna post a correction for this tab? Suggest correction