Oops, an error
Loading. Please wait.

Deja De Llover tab

by Ha*Ash
68 views 6 this week
no commentswrite comment
1 2 3 4 5
3 more votes to show rating
add to favorites
×
Save as Personal and add changes to this tab that will be seen only by you. Learn more ›
×
You can save this tab as Personal to edit and correct it or add notes. All changes will be seen only by you. Learn more »
launch autoscroll
font size
0
reset
how to read this tab
guitar tuner
edit
Autoscroll
slow
fast
+/-
esc
set tempo
stop
Espero que les guste esta padre y oiganla:

       D#m   A#m             B           C#          D#m      A#m           B          C#
1------------------------------------------------------------------------------------------
2----6-/-7---6-----------------------------------6-/-7---6---------------------------------
3----------------6-----3---3-/-6----6-/-8-------------------6------3---3-/-6---------------
4------------------------------------------------------------------------------------------
5------------------------------------------------------------------------------------------
6------------------------------------------------------------------------------------------

D#m                            B                 C#
 un minuto más es una eternidad pasa el tiempo como un año
A#m              D#m            B   C#
 pues sin ti el tiempo me hace daño
D#m                                    B            C#
 aún no sale el sol y en esta habitación huele a monotonía
A#m            D#m         B   C#
 por las horas sin tu compañía


 Pre:
A#m     D#m     B        C#
 Con tu luz se llena mi vida
A#m  C#m   B        C#   B    C#
 Alimentas mi religión  día a día

 Coro:
F#        B       C#   B-C#
 Todo lo que necesito
     F#            B        C#  B-C#
 Tus labios lo entienden mejor
A#m       D#m   B          C#
 Junto a ti descubro el camino
A#m      D#m    B             C#
 Junto a ti descanso y el cielo  deja de llover


       D#m   A#m             B           C#          D#m      A#m           B          C#
1------------------------------------------------------------------------------------------
2----6-/-7---6-----------------------------------6-/-7---6---------------------------------
3----------------6-----3---3-/-6----6-/-8-------------------6------3---3-/-6---------------
4------------------------------------------------------------------------------------------
5------------------------------------------------------------------------------------------
6------------------------------------------------------------------------------------------

D#m                           B                 C#
 otro día más que en mi corazón le da vuelta al calendario
A#m               D#m           B      C#
 ya ves que el amor se vive a diario

D#m                             B              C#
  y por convicción doy todo por ti no te pido nada a cambio
 A#m            D#m            B      C#
  más que tu te quedes en mis brazos

  Pre:
A#m     D#m  B         C#
 Tu mirar mi fe mi agonía
A#m     D#m B           C#
 guias cada paso que doy
B        C#
 Día a día

 Coro:
F#        B      C#     B-C#
Todo lo que necesito
F#                 B        C#     B-C#
 Tus labios lo entienden mejor
A#m     D#m     B          C#
 Junto a ti descubro el camino
A#m      D#m   B            C#
 Junto a ti descanso y el cielo
F#         B      C#   B-C#
 Todo lo que necesito
      F#           B        C#   B-C#
 Tus labios lo entienden mejor
A#m       D#m  B           C#
 Junto a ti descubro el camino
A#m      D#m    B             C#
 Junto a ti descanso y el cielo deja de llover


        D#m   A#m             B           C#          D#m      A#m           B          C#
1-----------------------------------------------------------------------------------------
2----6-/-7---6-----------------------------------6-/-7---6--------------------------------
3----------------6-----3---3-/-6----6-/-8-------------------6------3---3-/-6--------------
4-----------------------------------------------------------------------------------------
5-----------------------------------------------------------------------------------------
6-----------------------------------------------------------------------------------------

                       D#m
 deja de llover.


Ponemos de ejemplo D#m: 243111   y todos estos acordes son con cejilla

El  2 en la primera cuerda
El  4 en la segunda cuerda
El  3 en la tercera cuerda
El  1 en la cuarta cuerda
El  1 en la quinta cuerda
El  1 en la sexta cuerda

D#m: 243111
A#m: 123311
B: 244422
F#: 223442
C#: 466644

            
            
Suggest correction
Creating personal tab
Creating personal tab
You can edit any tab online and save it as your Personal.

You can edit, replace or remove any tab part or add personal notes – all changes will be seen only by you.

Personal tabs can be accessed anytime from any device, even offline.
Learn more »
Give kudos to tab author, rate the tab!
1 2 3 4 5
comments
print report bad tab
guest
Wanna post a correction for this tab? Suggest correction