Oops, an error
Loading. Please wait.

All The Days bass

by HAERTS
55 views 1 this week
1 commentread comment
1 2 3 4 5
2 more votes to show rating
add to favorites
×
Save as Personal and add changes to this tab that will be seen only by you. Learn more ›
×
You can save this tab as Personal to edit and correct it or add notes. All changes will be seen only by you. Learn more »
launch autoscroll
font size
0
reset
guitar tuner
edit
Autoscroll
slow
fast
+/-
esc
set tempo
stop
Two riffs with minor variations. Main ideas within the first verse. Make sure to count!


[INTRO]

  1
G|-------------------------|-------------------------|-------------------------|-------------------------|
D|-4---4-------4---4---4-6-|-------------------------|-------------------------|-2---2-------2---2-------|
A|---------4-7-------------|-4---4-------4---4---4-7-|---------------------2-4-|---------2-4---------4-7-|
E|-------x-----------------|---------4-7-------------|-5---5---0-2-5---5-------|-------------------------|
   1 + a 2 + a 3 + a 4 + a   1 + a 2 + a 3 + a 4 + a   1 + a 2 + a 3 + a 4 + a   1 + a 2 + a 3 + a 4 + a


[VERSE 1]

  5
G|-------------------------|-------------------------|-------------------------|-------------------------|
D|-4---4-------4---4---4-6-|-------------------------|-------------------------|-2---2-------2---2-------|
A|---------4-7-------------|-4---4-------4---4---4-7-|---------------------2-4-|---------2-4---------4-7-|
E|-------x-----------------|---------4-7-------------|-5---5---0-2-5---5-------|-------------------------|
   1 + a 2 + a 3 + a 4 + a   1 + a 2 + a 3 + a 4 + a   1 + a 2 + a 3 + a 4 + a   1 + a 2 + a 3 + a 4 + a

  9
G|-------------------------|-------------------------|-------------------------|-------------------------|
D|-4---4-------4---4---4-6-|-------------------------|-------------------------|-------------------------|
A|---------4-7-------------|-4---4-------4---4---4-7-|---------------------2-4-|-2---2-------2---2---4-7-|
E|-------x-----------------|---------4-7-------------|-5---5---0-2-5---5-------|---------2-4-------------|
   1 + a 2 + a 3 + a 4 + a   1 + a 2 + a 3 + a 4 + a   1 + a 2 + a 3 + a 4 + a   1 + a 2 + a 3 + a 4 + a


[INTERLUDE 1]

  13
G|-------------------------|-------------------------|-------------------------|-------------------------|
D|-4---4-------4---4---4-6-|-------------------------|-------------------------|-2---2-------2---2-------|
A|---------4-7-------------|-4---4-------4---4---4-7-|---------------------2-4-|---------2-4---------4-7-|
E|-------x-----------------|---------4-7-------------|-5---5---0-2-5---5-------|-------------------------|
   1 + a 2 + a 3 + a 4 + a   1 + a 2 + a 3 + a 4 + a   1 + a 2 + a 3 + a 4 + a   1 + a 2 + a 3 + a 4 + a


[VERSE 2]

  17
G|-------------------------|-------------------------|-------------------------|-------------------------|
D|-4---4-------4---4---4-6-|-------------------------|-------------------------|-2---2-------2---2-------|
A|---------4-7-------------|-4---4-------4---4---4-7-|---------------------2-4-|---------2-4---------4-7-|
E|-------x-----------------|---------4-7-------------|-5---5---0-2-5---5-------|-------------------------|
   1 + a 2 + a 3 + a 4 + a   1 + a 2 + a 3 + a 4 + a   1 + a 2 + a 3 + a 4 + a   1 + a 2 + a 3 + a 4 + a

  21
G|-------------------------|-------------------------|-------------------------|-------------------------|
D|-4---4-------4---4---4-6-|-------------------------|-------------------------|-------------------------|
A|---------4-7-------------|-4---4-------4---4---4-7-|---------------------2-4-|-2---2-------2---2---4-7-|
E|-------x-----------------|---------4-7-------------|-5---5---0-2-5---5-------|---------2-4-------------|
   1 + a 2 + a 3 + a 4 + a   1 + a 2 + a 3 + a 4 + a   1 + a 2 + a 3 + a 4 + a   1 + a 2 + a 3 + a 4 + a


[CHORUS]

  25
G|-------------------------|-------------------------|-------------------------|-------------------------|
D|-4---4-------4---4---4-6-|-------------------------|-------------------------|-2---2-------2---2-------|
A|---------4-7-------------|-4---4-------4---4---4-7-|---------------------2-4-|---------2-4---------4-7-|
E|-------------------------|---------4-7-------------|-5---5---0-2-5---5-------|-------------------------|
   1 + a 2 + a 3 + a 4 + a   1 + a 2 + a 3 + a 4 + a   1 + a 2 + a 3 + a 4 + a   1 + a 2 + a 3 + a 4 + a

  29
G|-------------------------|-------------------------|-------------------------|-------------------------|
D|-4---4-------4---4---4-6-|-------------------------|-------------------------|-------------------------|
A|---------4-7-------------|-4---4-------4---4---4-7-|---------------------2-4-|-2---2-------2---2---4-7-|
E|-------------------------|---------4-7-------------|-5---5---0-2-5---5-------|---------2-4-------------|
   1 + a 2 + a 3 + a 4 + a   1 + a 2 + a 3 + a 4 + a   1 + a 2 + a 3 + a 4 + a   1 + a 2 + a 3 + a 4 + a


[INTERLUDE 2]

  33
G|-------------------------|-------------------------|-------------------------|-------------------------|
D|-4---4-------4---4---4-6-|-------------------------|-------------------------|-2---2-------2---2-------|
A|---------4-7-------------|-4---4-------4---4---4-7-|---------------------2-4-|---------2-4---------4-7-|
E|-------------------------|---------4-7-------------|-5---5---0-2-5---5-------|-------------------------|
   1 + a 2 + a 3 + a 4 + a   1 + a 2 + a 3 + a 4 + a   1 + a 2 + a 3 + a 4 + a   1 + a 2 + a 3 + a 4 + a

  37
G|-------------------------|-------------------------|-------------------------|-------------------------|
D|-4---4-------4---4---4-6-|-------------------------|-------------------------|-------------------------|
A|---------4-7-------------|-4---4-------4---4---4-7-|---------------------2-4-|-2---2-------2---2---4-7-|
E|-------------------------|---------4-7-------------|-5---5---0-2-5---5-------|---------2-4-------------|
   1 + a 2 + a 3 + a 4 + a   1 + a 2 + a 3 + a 4 + a   1 + a 2 + a 3 + a 4 + a   1 + a 2 + a 3 + a 4 + a


[VERSE 3]

(tacet 8 bars; piano plays bass part)


[INTERLUDE 3]

(tacet 2 bars; drums and background synths only)


[CHORUS 2]

  51
G|-------------------------|-------------------------|-------------------------|-------------------------|
D|-4---4-------4---4---4-6-|-------------------------|-------------------------|-2---2-------2---2-------|
A|---------4-7-------------|-4---4-------4---4---4-7-|---------------------2-4-|---------2-4---------4-7-|
E|-------------------------|---------4-7-------------|-5---5---0-2-5---5-------|-------------------------|
   1 + a 2 + a 3 + a 4 + a   1 + a 2 + a 3 + a 4 + a   1 + a 2 + a 3 + a 4 + a   1 + a 2 + a 3 + a 4 + a

  55
G|-------------------------|-------------------------|-------------------------|-------------------------|
D|-4---4-------4---4---4-6-|-------------------------|-------------------------|-------------------------|
A|---------4-7-------------|-4---4-------4---4---4-7-|---------------------2-4-|-2---2-------2---2---4-7-|
E|-------------------------|---------4-7-------------|-5---5---0-2-5---5-------|---------2-4-------------|
   1 + a 2 + a 3 + a 4 + a   1 + a 2 + a 3 + a 4 + a   1 + a 2 + a 3 + a 4 + a   1 + a 2 + a 3 + a 4 + a

  59
G|-------------------------|-------------------------|-------------------------|-------------------------|
D|-4---4-------4---4---4-6-|-------------------------|-------------------------|-2---2-------2---2-------|
A|---------4-7-------------|-4---4-------4---4---4-7-|---------------------2-4-|---------2-4---------4-7-|
E|-------------------------|---------4-7-------------|-5---5---0-2-5---5-------|-------------------------|
   1 + a 2 + a 3 + a 4 + a   1 + a 2 + a 3 + a 4 + a   1 + a 2 + a 3 + a 4 + a   1 + a 2 + a 3 + a 4 + a

  63
G|-------------------------|-------------------------|-------------------------|-------------------------|
D|-4---4-------4---4---4-6-|-------------------------|-------------------------|-------------------------|
A|---------4-7-------------|-4---4-------4---4---4-7-|---------------------2-4-|-2---2-------2---2---4-7-|
E|-------------------------|---------4-7-------------|-5---5---0-2-5---5-------|---------2-4-------------|
   1 + a 2 + a 3 + a 4 + a   1 + a 2 + a 3 + a 4 + a   1 + a 2 + a 3 + a 4 + a   1 + a 2 + a 3 + a 4 + a


[INTERLUDE 4]

(9 measures of 12/8 and 1 measure of 6/8 tacet into bridge; synth only) (-76)


[BRIDGE]

(7 measures 12/8 + 1 measure 6/8 tacet TWICE - 16 measures total - synth, drums, vocals only) (-92)


[INTERLUDE 5]

(8 measures of 12/8 tacet) (-100)


[CHORUS]

  101
G|-------------------------|-------------------------|-------------------------|-------------------------|
D|-4---4-------4---4---4-6-|-------------------------|-------------------------|-2---2-------2---2-------|
A|---------4-7-------------|-4---4-------4---4---4-7-|---------------------2-4-|---------2-4---------4-7-|
E|-------------------------|---------4-7-------------|-5---5---0-2-5---5-------|-------------------------|
   1 + a 2 + a 3 + a 4 + a   1 + a 2 + a 3 + a 4 + a   1 + a 2 + a 3 + a 4 + a   1 + a 2 + a 3 + a 4 + a

  105
G|-------------------------|-------------------------|-------------------------|-------------------------|
D|-4---4-------4---4---4-6-|-------------------------|-------------------------|-------------------------|
A|---------4-7-------------|-4---4-------4---4---4-7-|---------------------2-4-|-2---2-------2---2---4-7-|
E|-------------------------|---------4-7-------------|-5---5---0-2-5---5-------|---------2-4-------------|
   1 + a 2 + a 3 + a 4 + a   1 + a 2 + a 3 + a 4 + a   1 + a 2 + a 3 + a 4 + a   1 + a 2 + a 3 + a 4 + a

  109
G|-------------------------|-------------------------|-------------------------|-------------------------|
D|-4---4-------4---4---4-6-|-------------------------|-------------------------|-2---2-------2---2-------|
A|---------4-7-------------|-4---4-------4---4---4-7-|---------------------2-4-|---------2-4---------4-7-|
E|-------------------------|---------4-7-------------|-5---5---0-2-5---5-------|-------------------------|
   1 + a 2 + a 3 + a 4 + a   1 + a 2 + a 3 + a 4 + a   1 + a 2 + a 3 + a 4 + a   1 + a 2 + a 3 + a 4 + a

  113
G|-------------------------|-------------------------|-------------------------|-------------------------|
D|-4---4-------4---4---4-6-|-------------------------|-------------------------|-------------------------|
A|---------4-7-------------|-4---4-------4---4---4-7-|---------------------2-4-|-2---2-------2---2---4-7-|
E|-------------------------|---------4-7-------------|-5---5---0-2-5---5-------|---------2-4-------------|
   1 + a 2 + a 3 + a 4 + a   1 + a 2 + a 3 + a 4 + a   1 + a 2 + a 3 + a 4 + a   1 + a 2 + a 3 + a 4 + a


[Outro]

  117
G|-------------------------|-------------------------|-------------------------|-------------------------|
D|-4---4-------4---4---4-6-|-------------------------|-------------------------|-2---2-------2---2-------|
A|---------4-7-------------|-4---4-------4---4---4-7-|---------------------2-4-|---------2-4---------4-7-|
E|-------------------------|---------4-7-------------|-5---5---0-2-5---5-------|-------------------------|
   1 + a 2 + a 3 + a 4 + a   1 + a 2 + a 3 + a 4 + a   1 + a 2 + a 3 + a 4 + a   1 + a 2 + a 3 + a 4 + a

  121
G|-------------------------|-------------------------|-------------------------|-------------------------|
D|-4---4-------4---4---4-6-|-------------------------|-------------------------|-------------------------|
A|---------4-7-------------|-4---4-------4---4---4-7-|---------------------2-4-|-2---2-------2---2---4-7-|
E|-------------------------|---------4-7-------------|-5---5---0-2-5---5-------|---------2-4-------------|
   1 + a 2 + a 3 + a 4 + a   1 + a 2 + a 3 + a 4 + a   1 + a 2 + a 3 + a 4 + a   1 + a 2 + a 3 + a 4 + a

  125
G|-------------------------|-------------------------|-------------------------|-------------------------|
D|-4---4-------4---4---4-6-|-------------------------|-------------------------|-2---2-------2---2-------|
A|---------4-7-------------|-4---4-------4---4---4-7-|---------------------2-4-|---------2-4---------4-7-|
E|-------------------------|---------4-7-------------|-5---5---0-2-5---5-------|-------------------------|
   1 + a 2 + a 3 + a 4 + a   1 + a 2 + a 3 + a 4 + a   1 + a 2 + a 3 + a 4 + a   1 + a 2 + a 3 + a 4 + a

  129
G|-------------------------|-------------------------|-------------------------|-------------------------|
D|-4---4-------4---4---4-6-|-------------------------|-------------------------|-------------------------|
A|---------4-7-------------|-4---4-------4---4---4-7-|---------------------2-4-|-2---2-------2---2---4-7-|
E|-------------------------|---------4-7-------------|-5---5---0-2-5---5-------|---------2-4-------------|
   1 + a 2 + a 3 + a 4 + a   1 + a 2 + a 3 + a 4 + a   1 + a 2 + a 3 + a 4 + a   1 + a 2 + a 3 + a 4 + a

  133
G|-------------------------|-------------------------|
D|-------------------------|-------------------------|
A|-------------------------|-------------------------|
E|-------------------------|-------------------------|
   1 + a 2 + a 3 + a 4 + a   1 + a 2 + a 3 + a 4 + a
   (synth only, fade)


*******************
| x  mute
*******************

            
            
Suggest correction
Creating personal tab
Creating personal tab
You can edit any tab online and save it as your Personal.

You can edit, replace or remove any tab part or add personal notes – all changes will be seen only by you.

Personal tabs can be accessed anytime from any device, even offline.
Learn more »
Give kudos to tab author, rate the tab!
1 2 3 4 5
comments
print report bad tab
1 comment total.
+1 reply
linkhashimoto 10 Jun 09, 2017 01:53 PM

thanks for the tab!

guest
You may want to rate the tab now too:
select rating
Wanna post a correction for this tab? Suggest correction