Oops, an error
Loading. Please wait.

Rolling Out The Red Carpet intro tab

version 1
version 1

Intro

Interactive

4,683 views 21 this week
no commentswrite comment
1 2 3 4 5
x 10
add to favorites
×
Save as Personal and add changes to this tab that will be seen only by you. Learn more ›
×
You can save this tab as Personal to edit and correct it or add notes. All changes will be seen only by you. Learn more »
launch autoscroll
font size
0
reset
how to read this tab
guitar tuner
edit
Autoscroll
slow
fast
+/-
esc
set tempo
stop
Difficulty
intermediate
-------------------------------------------------------------------------------
                Rolling Out the Red Carpet - Hail the Sun
-------------------------------------------------------------------------------

Tabbed by: Nick Carlucci
E-mail: theluch21@gmail.com

Tuning:

e|-----------------------------------------------------|
B|-----------------------------------------------------|
G|--------0-----6-----7-----------2-----------2--------|
D|------0---7-----7-----7-------0---0-------0---0------|
A|----8-------8-----8-----8---1-------1---1-------1----|
E|--6-----------------------3-----------3--------------|Repeat x4

e|-----------------------------------------------------|
B|--------6-----------6--------------------------------|
G|--------------------------------8-----------7--------|
D|------7---7-------7---7-------7---7-------7---7------|
A|----6-------6---6-------6---6-------6---6-------6----|
E|--8-----------8-----------8-----------8--------------|

e|-----------------------------------------------------|
B|-----------------------------------------------------|
G|--------0-----6-----7-----------2-----------2--------|
D|------0---7-----7-----7-------0---0-------0---0------|
A|----8-------8-----8-----8---1-------1---1-------1----|
E|--6-----------------------3-----------3--------------|Repeat x4

e|-----------------------------------------------------|
B|--------6-----------6--------------------------------|
G|--------------------------------8-----------7--------|
D|------7---7-------7---7-------7---7-------7---7------|
A|----6-------6---6-------6---6-------6---6-------6----|
E|--8-----------8-----------8-----------8--------------|

I believe the rest of the song should be fairly easy to figure out as it pretty 
much uses the same chords (just strummed out and accented, not arpeggiated).  
There is also lead guitar that accents the rhythm, but I'll let you figure that
out ;)

            
            
Suggest correction
Creating personal tab
Creating personal tab
You can edit any tab online and save it as your Personal.

You can edit, replace or remove any tab part or add personal notes – all changes will be seen only by you.

Personal tabs can be accessed anytime from any device, even offline.
Learn more »
comments
print report bad tab
guest
Wanna post a correction for this tab? Suggest correction