Oops, an error
Loading. Please wait.

If I Could Change Your Mind tab

version 1
version 1

Whole song

by HAIM
31,653 views 60 this week
no commentswrite comment
1 2 3 4 5
x 7
add to favorites
×
Save as Personal and add changes to this tab that will be seen only by you. Learn more ›
×
You can save this tab as Personal to edit and correct it or add notes. All changes will be seen only by you. Learn more »
launch autoscroll
font size
0
reset
how to read this tab
guitar tuner
edit
Autoscroll
slow
fast
+/-
esc
set tempo
stop
Author
IF I COULD CHANGE YOUR MIND - Haim
Tabbed by: Lauren Marquez
E-mail: lauren.marquez4@gmail.com
Tuning: Standard

Guitar 1 is all chords, if you just want to play along with the song.
Guitar 2 is lead riffs and stuff to add if you want to sound like the album.

[Chords used]
     Dm      Bb      C       Gm      F
e|---5---|---1---|---3---|-------|-------|
B|---6---|---3---|---5---|---11--|---10--|
G|---7---|---3---|---5---|---12--|---10--|
D|---7---|---3---|---5---|---12--|---10--|
A|---5---|---1---|---3---|---10--|---8---|
E|-------|-------|-------|-------|-------|

[Intro]
Guitar 1:
Dm - Bb - C - Bb

[Verse 1]
Guitar 1:
Dm                 Bb
No, please don't cry
                   C
I've never done this before
                   Bb
Drove a million miles
   Dm              Bb
Back when you were mine
            C
I was too young to know
                      Bb
You were the one to find

Guitar 2: (palm muted)          
e|-------------------------------------------------------------------------------------------|
B|-------------------------------------------------------------------------------------------|
G|-------7777------777-----------------------------------------------------------------------| x2
D|----------------------------8888------888--------10101010------101010--------8888------888-|
A|-555555------5555--------------------------------------------------------------------------|
E|----------------------666666------6666-----888888----------8888--------666666------6666----|

[Pre-Chorus]
Guitar 1:
                Gm       F
But if I was to say I regret it
Dm                  C
Would it mean a thing?
                    Gm             F
'Cause every time I think, think about it
Dm
Memories take me back to all of our wildest times

Guitar 2:
e|---------------------------|
B|---------------------------|
G|---------------------------| x4
D|-10-10-10-10-10---10-10-10-|
A|---------------------------|
E|---------------------------|

[Chorus]
Guitar 1:
C                      Dm  Bb
If I could change your mind
        Dm                  C
I would hit the ground running
                    Dm  Bb
It took time to realise
        Dm           C
And I never saw it coming
                 Dm  Bb
Forgive my lying eyes
       Dm                C
Gonna give you all or nothing
                       Dm
If I could change your mind
        Bb
I could make you, make you mine

Guitar 2:       
e|---------------------------------------------------|
B|---------------------------------------------------|
G|-9--9--9\----9--9---10-10-----7-7-7\---7-7---10-10-|
D|-10-10-10\---10-10--12-12-----8-8-8\---8-8---12-12-|
A|---------------------------------------------------|
E|---------------------------------------------------|

e|---------------------------------------------------|
B|---------------------------------------------------|
G|-9--9--9\----9--9---10-10-----7-7-7\---777--101010-| (both x2)
D|-10-10-10\---10-10--12-12-----8-8-8\---888--121212-|
A|---------------------------------------------------|
E|---------------------------------------------------|

[Verse 2]
Guitar 1 (only):
Dm           Bb
Now I won't go
               C
I won't run away this time
                      Bb
You're all I want to know

[Pre-Chorus]
Guitar 1:
                Gm       F
But if I was to say I regret it
Dm                  C
Would it mean a thing?
                    Gm             F
'Cause every time I think, think about it
Dm
Memories take me back to all of our wildest times

Guitar 2:
e|---------------------------|
B|---------------------------|
G|---------------------------| x4
D|-10-10-10-10-10---10-10-10-|
A|---------------------------|
E|---------------------------|

[Chorus]
Guitar 1:
C                      Dm  Bb
If I could change your mind
        Dm                  C
I would hit the ground running
                    Dm  Bb
It took time to realise
        Dm           C
And I never saw it coming
                 Dm  Bb
Forgive my lying eyes
       Dm                C
Gonna give you all or nothing
                       Dm
If I could change your mind
        Bb
I could make you, make you mine

Guitar 2:       
e|---------------------------------------------------|
B|---------------------------------------------------|
G|-9--9--9\----9--9---10-10-----7-7-7\---7-7---10-10-|
D|-10-10-10\---10-10--12-12-----8-8-8\---8-8---12-12-|
A|---------------------------------------------------|
E|---------------------------------------------------|

e|---------------------------------------------------|
B|---------------------------------------------------|
G|-9--9--9\----9--9---10-10-----7-7-7\---777--101010-| (both x2)
D|-10-10-10\---10-10--12-12-----8-8-8\---888--121212-|
A|---------------------------------------------------|
E|---------------------------------------------------|

[Bridge]
Guitar 1:
"Visions of our love pass right by me
Your eyes are enough to remind me"
e|---------------------------------|
B|---------------------------------|
G|---------------------------------| x2
D|-10-10-10-10-12-----10-10-10--12-|
A|---------------------------------|
E|---------------------------------|

"Visions of our love pass right by me
Your eyes are enough to remind me"
e|---------------------------------|
B|---------------------------------|
G|-9--9--9--9--10-----9--9--9---10-| x2
D|-10-10-10-10-12-----10-10-10--12-|
A|---------------------------------|
E|---------------------------------|

Guitar 2: (palm muted)  
e|----------------------|
B|----------------------|
G|-------7777------777--| x4
D|----------------------|
A|-555555------5555-----|
E|----------------------|

[Chorus]
Guitar 1:
C                      Dm  Bb
If I could change your mind
        Dm                  C
I would hit the ground running
                    Dm  Bb
It took time to realise
        Dm           C
And I never saw it coming
                 Dm  Bb
Forgive my lying eyes
       Dm                C
Gonna give you all or nothing
                       Dm
If I could change your mind
        Bb
I could make you, make you mine

Guitar 2:       
e|---------------------------------------------------|
B|---------------------------------------------------|
G|-9--9--9\----9--9---10-10-----7-7-7\---7-7---10-10-|
D|-10-10-10\---10-10--12-12-----8-8-8\---8-8---12-12-|
A|---------------------------------------------------|
E|---------------------------------------------------|

e|---------------------------------------------------|
B|---------------------------------------------------|
G|-9--9--9\----9--9---10-10-----7-7-7\---777--101010-| (both x2)
D|-10-10-10\---10-10--12-12-----8-8-8\---888--121212-|
A|---------------------------------------------------|
E|---------------------------------------------------|


************************************

| \  Slide down

************************************

            
            
Suggest correction
Creating personal tab
Creating personal tab
You can edit any tab online and save it as your Personal.

You can edit, replace or remove any tab part or add personal notes – all changes will be seen only by you.

Personal tabs can be accessed anytime from any device, even offline.
Learn more »
comments
print report bad tab
guest
You may want to rate the tab now too:
select rating
Wanna post a correction for this tab? Suggest correction