Oops, an error
Loading. Please wait.

Affinity album bass

by Haken
697 views 1 this week
1 commentread comment
1 2 3 4 5
x 3
add to favorites
×
Save as Personal and add changes to this tab that will be seen only by you. Learn more ›
×
You can save this tab as Personal to edit and correct it or add notes. All changes will be seen only by you. Learn more »
launch autoscroll
font size
0
reset
guitar tuner
edit
Autoscroll
slow
fast
+/-
esc
set tempo
stop
Author
Difficulty
-------------------------------------------------------------------------------
                             Affinity - Haken
-------------------------------------------------------------------------------
Tabbed by: flame9800 

Tuning: 5 string Standard Tuning (BEADG)

Track listing:

1. affinity.exe
2. Initiate
3. 1985
4. Lapse
5. The Architect (featuring Einar Solberg)
6. Earthrise
7. Red Giant
8. The Endless Knot
9. Bound By Gravity

The basslines for every song on the album are performed by Conner Green.



1. affinity.exe


Intro (rest)
G|---------------------------------------------------------------------------|
D|---------------------------------------------------------------------------|
A|---------------------------------------------------------------------------|
E|---------------------------------------------------------------------------|
B|---------------------------------------------------------------------------|

(1:07)                                              x6                leads into Initiate
G|----------------------|---------------------------|-----------------------------------------|
D|----------------------|*-------------------------*|-----------------------------------------|
A|----------------------|---------------------------|-----------------------------------------|
E|----------------------|*-------------------------*|-----------------------------------------|
B|-0-0-0-0--0-0--0-0-0--|--0-0-0-0-0-0--0-0--0-0-0--|--0-0-0-0-0-0--0-0-----------------------|


2. Initiate


 Intro (0:00)                            
G|----------------------------------------------------------------------------------------------------
D|----------------------------------------------------------------------------------------------------
A|--2-2-2-2--2-2--2-2-2--2-2-2-2-2-2--2-2--2-2-2--2-2-0-0-0-0--0-0--0-0-0--0-0-0-0-0-0--0-0--0-0-0----
E|----------------------------------------------------------------------------------------------------
B|----------------------------------------------------------------------------------------------------

G|-----------------------------------------------------------------------------|
D|-----------------------------------------------------------------------------|
A|--0-0-7-7-7-7--7-7--7-7-7--7-7-7-7-7-7--7-7--7-7-7--7-7-5-5-5-5--5-5--5-5-5--|
E|-----------------------------------------------------------------------------|
B|-----------------------------------------------------------------------------|

G|----------------------------|
D|----------------------------|
A|-4-4-4-4--4-4--4-4-4--------|
E|----------------------------|
B|----------------------------|

 Rest (0:16)
G|---------------------------------------------------------------------------|
D|---------------------------------------------------------------------------|
A|---------------------------------------------------------------------------|
E|---------------------------------------------------------------------------|
B|---------------------------------------------------------------------------|

 (0:41)        octaver: on            off
G|---------------------------------------------------------------------------|
D|---------------------------------------------------------------------------|
A|---------------------------------------------------------------------------|
E|-----------------------3---10-9-7\--3--5--5-5------------------------------|
B|--5--3----8-8--7--8\3----3-------------------------------------------------|

 (0:58)
G|-----------------------------------------------------------------------------------------------------
D|-----------------------------------------------------------------------------------------------------
A|-----------------------------------------------------------------------------------------------------
E|---7-7-7-7--7-7--7-7-7--7-7-7-7-7-7--7-7--7-7-7--7-7-5-5-5-5--5-5--5-5-5--5-5-5-5-5-5--5-5--5-5-5----
B|-----------------------------------------------------------------------------------------------------

G|------------------------------------------------------------------------------|
D|------------------------------------------------------------------------------|
A|------7-7-7-7--7-7--7-7-7--7-7-7-7-7-7--7-7--7-7-7--7-7-5-5-5-5--5-5--5-5-5---|
E|--5-5-------------------------------------------------------------------------|
B|------------------------------------------------------------------------------|

G|---------------------------|
D|---------------------------|
A|-4-4-4-4--4-4--4-4-4-------|
E|---------------------------|
B|---------------------------|

 (1:14)
G|---------------------------------9---------------------------------------------------------------|
D|-------9------9---------7---7/11---12-11-9-------------------------------------------------------|
A|-------------------------------------------12-9-9--7-5-7-7-------------------7-----7-------------|
E|-5/7-7--7-7-7---7-7-5-5--5------------------------------------7--------0-5-7---5-7---7-5---------|
B|----------------------------------------------------------------5-5-5----------------------------|  

G|------------7h9-------------------------------------------------------------------------------------------
D|------9---------9---------6--------------5-----------------7h9----------------------16-------14-----------
A|----------------------------------------------------9-7-5------11-10-9-6-7---14-14-----14-14----14-14-----
E|--7-7---7-7-------7-7-4-4---4-4-4-4-4-3----3-3-/-10-------------------------------------------------------
B|----------------------------------------------------------------------------------------------------------

G|----14h16------------------------------------------------------------------------------------------------|
D|-----------16-14-----------------------------------------------------------------------------------------|
A|-----------------16-14\----------------------------------------------------------------------------------|
E|---------------------------14\-10\---3-5-----------------------------------------------------------------|
B|-----------------------------------3---------------------------------------------------------------------|

 (1:56)
G|------------------------------------------------------------------------------------------------------
D|------------------------------------------------------------------------------------------------------
A|------------------------------------------------------------------------------------------------------
E|---7-7-7-7--7-7--7-7-7--7-7-7-7-7-7--7-7--7-7-7--7-7-5-5-5-5--5-5--5-5-5--5-5-5-5-5-5--5-5--5-5-5-----
B|------------------------------------------------------------------------------------------------------

G|------------------------------------------------------------------------------|
D|------------------------------------------------------------------------------|
A|------------------------------------------------------------------------------|
E|--5-5-------------------------------------------------------------------------|
B|------5-5-5-5--5-5--5-5-5--5-5-5-5-5-5--5-5--5-5-5--5-5-3-3-3-3--3-3--3-3-3---|

G|---------------------------|
D|---------------------------|
A|---------------------------|
E|---------------------------|
B|-2-2-2-2--2-2--2-2-2-------|

G|----------------------------------------------------------------------------------------------------
D|----------------------------------------------------------------------------------------------------
A|----------------------------------------------------------------------------------------------------
E|---3-3-3-3--3-3--3-3-3--3-3-3-3-3-3--3-3--3-3-3--3-3-2-2-2-2--2-2--2-2-2--2-2-2-2-2-2--2-2--2-2-2---
B|----------------------------------------------------------------------------------------------------

G|-----------------------------------------------------------------------------|
D|-----------------------------------------------------------------------------|
A|-----------------------------------------------------------------------------|
E|--2-2-3-3-3-3--3-3--3-3-3--3-3-3-3-3-3--3-3--3-3-3--3-3-6-6-6-6--6-6--6-6-6--|
B|-----------------------------------------------------------------------------|

G|---------------------------|
D|---------------------------|
A|---------------------------|
E|-6-6-6-6--6-6--6-6-6-------|
B|---------------------------|

G|---------------------------------------------------------------------------|
D|---------------------------------------------------------------------------|
A|------9-----10-----9-------------------------------------------------------|
E|--6-6---6-6----6-6---6-6--10--6-6--7\--------------------------------------|
B|---------------------------------------------------------------------------|

 Interlude (2:30)
G|---------------------------------------------------------------------------------------------------------
D|---------------------------------------------------------------------------------------------------------
A|------2--2----------1---1-------1---------2---2----2--2---------1---1-------1---------5---5------5--5----
E|---------------------------------------------------------------------------------------------------------
B|--0-0------0--0--0----0---0-0-0---2--0--0---0---0-0-----0--0--0---0---0-0-0---2--0--0---0---0--0---------

G|---------------------------------------------------------------------------|
D|---------------------------------------------------------------------------|
A|----------4---4-------4--4-------5---5-----5---5~----4---4-------4--4------|
E|---------------------------------------------------------------------------|
B|-0--0--0----0---0-0-0-------0--0---0---0-0---0-----0---0---0-0-0-----------|

 (2:46)                                                                 
G|---------------------------------------------------------------------------------------------------|
D|------9---9------8--8---------5---5-------4--------------------------------------------------------|
A|----------------------------------------------------7---7-------5--5---------4---4--------1/4------|
E|-7--7---7---6--6------6--3--3---3---2-2-2---2--0--0---0--------------------------------------------|
B|-----------------------------------------------------------3--3------3--2--2---2----2-2-2----------|

G|-------------------------------------------------------------------------------------------------|
D|------9---9------8--8---------5---5-------4------------------------------------------------------|
A|----------------------------------------------------7---7-------5---5------4---4-----------------|
E|-7--7---7---6--6------6--3--3---3---2-2-2---2--0--0---0---------------------------2-2-2--6--6----|
B|-----------------------------------------------------------3--3---3---2--2---2-------------------|

G|---------------------------------------------------------------------------------------------------------|
D|---------------------------------------------------------------------------------------------------------|
A|---------------------------------------------------------------------------------------------------------|
E|--7--7-7--7-7--6-6-6--6-6--3--3-3--3-3--2-2-2--2--2---0--0-0--0-0----------------------------3-3-3/6--6--|
B|-------------------------------------------------------------------3-3-3-3--3-3--2--2-2--2-2-------------|

G|--------------------------------------------------------------------------------------------------|
D|--------------------------------------------------------------------------------------------------|
A|--------------------------------------------------------------------------------------------------|
E|--7-7-7-7-7-7-7-7--6-6-6-6-6-6-6--3-3-3-3-3-3-3--2-2-2-2-2-2-2--0-0-0-0-0-0-0-0-------------------|
B|--------------------------------------------------------------------------------3-3-3-3-3-3-3-----|

G|---------------------------------------------------------------------------|
D|---------------------------------------------------------------------------|
A|---------------------------------------------------------------------------|
E|----------------2-2-2/14--14--14-------------------------------------------|
B|--2-2-2-2-2-2-2------------------------------------------------------------|

 Rest (3:22)
G|---------------------------------------------------------------------------|
D|---------------------------------------------------------------------------|
A|---------------------------------------------------------------------------|
E|---------------------------------------------------------------------------|
B|---------------------------------------------------------------------------|
 
 Outro (3:39)
G|---------------------------------------------------------------------------------------------------------|
D|---------------------------------------------------------------------------------------------------------|
A|---------------------------------------------------------------------5------------------------------5----|
E|------------2-0--0---12\-0--3-------------3--5-5/-17-17\15\-----------------5-2-3-3-3--15\--5------------|
B|--5-3--3----------------------3--3---3-3---------------------5-3-3-3---3-3--------------------3-3-3-3----|

G|---------------------------------------------------------------------------|
D|---------------------------------------------------------------------------|
A|---------------------------------------------------------------------------|
E|--3---5---5--5--5-5-5------------------------------------------------------|
B|---------------------------------------------------------------------------|


3. 1985


Guitar Intro (0:00)
G|---------------------------------------------------------------------------|
D|---------------------------------------------------------------------------|
A|---------------------------------------------------------------------------|
E|---------------------------------------------------------------------------|
B|---------------------------------------------------------------------------|
 
 (0:12)
G|---------------------------------------------------------------------------|
D|---------------------------------------------------------------------------|
A|----------4--------7-6-------------------------------9-7------7------------|
E|--2-2-4-5---2--4-6------7---------------------5/9-7------9-7----9-7--9-7---|
B|--------------------------7--5--5-5--7----5-7------------------------------|

G|---------------------------------------------------------------------------|
D|----------------------2----------------------------------------------------|
A|--------------2-2-4-4---4-2-4----------------------------------------------|
E|-5--2-4-4-5-5--------------------------------------------------------------|
B|---------------------------------------------------------------------------|

G|---------------------------------------------------------------------------|
D|---------------------------------------------------------------------------|
A|----------4--------7-6-------------------------------9-7------7------------|
E|--2-2-4-5---2--4-6------7---------------------5/9-7------9-7----9-7--9-7---|
B|--------------------------7--5--5-5--7----5-7------------------------------|
 
G|---------------------------------------------------------------------------------------------------------|
D|---------------------4---2-------------------------------------------------------------------------------|
A|-------------------2---4---4-2-------2-------------------------------------------------------------------|
E|-5---2--4--4--5--5-------------4-2-4---4-2-----2--2-2-2--2--2-2--2--5--5-5--5--5---------------------0-0-|
B|-------------------------------------------4~------------------------------------4-4-4-4-2-2-0-0-2-2-----|

                                                                                          x3
G|-----------------------------------------------------------------------------------------|
D|*---------------------------------------------------------------------------------------*|
A|-----------------------------------------------------------------------------------------|
E|*-2--2-2-2--2--2-2--2--5--5-5--5--5---------------------0-0-----------------------------*|
B|------------------------------------4-4-4-4-2-2-0-0-2-2----------------------------------|

  (1:00)
G|---------------------------------------------------------------------------|
D|---------------------------------------------------------------------------|
A|---------------------------------------------------------------------------|
E|--2----------------2------------5------------5-----------------------------|
B|---------------------------------------------------------------------------|

G|---------------------------------------------------------------------------|
D|----------------------------------------4----------------4-----------------|
A|---------------------------------------------------------------------------|
E|--2-2-2---2-2-------2-2-2---2-2--2--------2-2---2-2--------2-2---2-2--2----|
B|---------------------------------------------------------------------------|

                   x4
G|------------------|------------------------------------------------------------|
D|*---4------4-----*|-----------------------2-2--------4-----4------4----4-------|
A|------------------|-------------------4-4--------------------------------------|
E|*-----2-2----2---*|------0-2-2-2--2-2---------2-2-2----2-----2-2----2----2-2---|
B|------------------|--1-3-------------------------------------------------------|

             t     t   t   t   t      t t   t      t     t  t   t      t   t  t  t  x3
G|------|---------14------16---------14----16-----------14-----16----------14---16---|
D|--4---|*--------14------16---------14----16-----------14-----16----------14---16--*|
A|------|----------------------------------------------------------------------------|
E|----2-|*--------------------------------------------------------------------------*|
B|------|---5h7-------7-------7p5h7-----7---------5h7-------7---------5h7-----7------|

     t    t t   t   t      t  t t    t
G|-------14----16---------14----16-------------------------------------------|
D|-------14----16---------14----16-------------------------------------------|
A|---------------------------------------------------------------------------|
E|---------------------------------------5---7-7\----------------------------|
B|--5h7-----7------7p5h7------7-----5h7----7---------------------------------|

  (2:14)
G|---------------------------------------------------------------------------------------------------------|
D|---------------------------------------------------------------------------------------------------------|
A|---------------------------------------------------------------------------------------------------------|
E|-2-2--2-2--2-2--2-2--------------------5-5--5-5--5-5--5-5---------------5-7-5-7-5\--2-2--2-2--2-2--2-2---|
B|--------------------2-2--2-2--2-2--2-2--------------------5-5--5-5--5-5----------------------------------|

G|---------------------------------------------------------------------------|
D|---------------------------------------------------------------------------|
A|---------------------------------------------------------------------------|
E|---------------------------------------------------------------------------|
B|--2-2--2-2--2-2--2-2-------------------------------------------------------|

                                            octaver on
G|---------------------------------------------------------------------------------------------------|
D|---------------------------------------------------------------------------------------------------|
A|---------------------------------------------------------------------------------------------------|
E|-5-5--5-5--5-5--5-5---5-5-5--7--5--4------2br--0-0---2br--0-0--0---2br--0-0--2br--2br--0-0--0------|
B|--------------------------------------5------------------------------------------------------------|

                                                octaver off
G|---------------------------------------------------------------------------|
D|---------------------------------------------------------------------------|
A|---------------------------------------------------------------------------|
E|-2br--0-0---2br--0-0--0---2br--0-0--2br--2br--0--12br--12br----------------|
B|---------------------------------------------------------------------------|

  (2:49) count well, play on counterbeats                                     x3
G|----------9-------------9----------------------------------------------------|
D|*----11-----7--9---11-----7--9----11----------------------------------------*|
A|--------9--------7----9--------7-----9--7-7-9--------------------------------|
E|*---------------------------------------------------------------------------*|
B|-----------------------------------------------------------------------------|

  now play to the beat (follow drums)
G|---------------------------------------------------------------------------|
D|---------------------------------------------------------------------------|
A|---------------------------------------------------------------------------|
E|-2-2--2---2---2---2--2--2-2--2-5-------------------------------------------|
B|---------------------------------------------------------------------------|

   fuzz/distortion on
G|------------------------------------------------------------------------------------------|
D|------------------------------------------------------------------------------------------|
A|------------------------------------------------------------------------------------------|
E|------------------------------------------------------------------------------------------|
B|-5-7--7-7--7-7--7-7--7-7--7-7--7-7--7-7--7-5-7--7-7--7-7--7-7--7-7--7-7--7-7--7-7/10--10--|

                                                                                           fuzz/distortion off
G|-------------------------------------------------------------------------------------------------------|
D|-------------------------------------------------------------------------------------------------------|
A|----------------------------------------------------------------------9---7----------------------------|
E|------------------------------------------------------------------------9---9-7------7-----------------|
B|-5-7--7-7--7-7--7-7--7-7--7-7--7-7--7-7--7-5-7--7--7-7--7-7--7-7--7-7----------9-7-9---9-7-4~----------|

  (3:30)
G|---------------------------------------------------------------------------------------------------------|
D|---------------------------------------------------------------------------------------------------------|
A|---------------------------------------------------------------------------------------------------------|
E|-2-2--2-2--2-2--2-2--------------------5-5--5-5--5-5--5-5---------------5-7-5-7-5\--2-2--2-2--2-2--2-2---|
B|--------------------2-2--2-2--2-2--2-2--------------------5-5--5-5--5-5----------------------------------|

G|---------------------------------------------------------------------------|
D|---------------------------------------------------------------------------|
A|---------------------------------------------------------------------------|
E|---------------------------------------------------------------------------|
B|--2-2--2-2--2-2--2-2-------------------------------------------------------|

                                            octaver on
G|---------------------------------------------------------------------------------------------------|
D|---------------------------------------------------------------------------------------------------|
A|---------------------------------------------------------------------------------------------------|
E|-5-5--5-5--5-5--5-5---5-5-5--7--5--4------2br--0-0---2br--0-0--0---2br--0-0--2br--2br--0-0--0------|
B|--------------------------------------5------------------------------------------------------------|
                                             
G|---------------------------------------------------------------------------|
D|---------------------------------------------------------------------------|
A|---------------------------------------------------------------------------|
E|-2br--0-0---2br--0-0--0---2br--0-0--2br--2br--0--12br--12br----------------|
B|---------------------------------------------------------------------------|

   fuzz/distortion on                                                            octaver + fuzz/distortion off
G|-------------------------------------------------------------------------------------------------------|
D|-------------------------------------------------------------------------------------------------------|
A|-------------------------------------------------------------------------------------------------------|
E|--2b--0-0---2b--0-0--0---2b--0-0--2b--2b--0-0--0---2b--0-0--2b--0-0--0--2-2-2-2-2-2-2--2-2-2-2-2-2-2---|
B|-------------------------------------------------------------------------------------------------------|

  (4:15)                                                                                   octaver on
G|-------------------------------------------------------------------------------------------------------|
D|-------------------------------------------------------------------------------------------------------|
A|----------------------------------4-----7--------------------------------------------------------------|
E|-2--2---2--2-2----2--2---2--2--2-----5-----2--2---2--2-2----2--2---2--2--2/9--12-----------------------|
B|----------------------------------------------------------------------------------12--8--6--6---6--6-6-|

                                                         octaver off
G|-----------------------------------------------------------------------------------------------------------|
D|-----------------------------------------------------------------------------------------------------------|
A|---------------------------------------------------------8-------------------------------------------------|
E|-----------------9-----------------------------------------9-7---2--2---2--2-2---2--2---2--2--2/5--5--4--4-|
B|-6--6---6--6--6-----8-7--6--6---6--6-6----6--6---6--6--6---------------------------------------------------|

            octaver on
G|-----------------------------------------------------------------------------------------------------|
D|-----------------------------------------------------------------------------------------------------|
A|----------------------------------2-------------------------------------------4-2-4-2--5h7--4--------|
E|-2--2--2--5h7--7---2--2---2--2--2---4-2----1---1--1---1----1--1----1---1---1-------------------------|
B|----------------------------------------4------------------------------------------------------6--6--|

                              let ring - octaver off
G|---------------------------------------------------------------------------|
D|---------------------------------------------------------------------------|
A|-------------------------2-------------------------------------------------|
E|------------------5---3-----2~---------------------------------------------|
B|-6---6--6--6-6--6----------------------------------------------------------|

  (5:05)       x4                       x3
G|-------------|-------------------------|--------------------------------------------|
D|*-----------*|*--------------9-11-----*|-------------9-11---------------------------|
A|-------------|----5--7-9--12------7~---|--5--7-9--12------11--9-9--9-9--9-9---9-9---|
E|*-----------*|*-----------------------*|--------------------------------------------|
B|--3--5-7~----|-------------------------|--------------------------------------------|

  (5:46)
G|--------------------------------------------------------------9---------------------------|
D|-------------------------------------------------------11---9-----------------------------|
A|----------------------------------------------------7-----9-----7~------------------------|
E|----------------------------------------------7--9----------------------------------------|
B|--7--5--7---5---5-5--7--5--7--7--7---7--5--7----------------------------------------------|

G|-----------------------------------------------------------------------------------------------------------|
D|-----------------------------------------------------------------------------------------------------------|
A|-----------------------------------------------------------------------------------------------------------|
E|-2--2--2--2--4--4--4--4--5--5--5--5--5--5--5--5----------------------2/5-------------------------------2/5-|
B|-------------------------------------------------4-4-4--0---4-4-4--0------4-4-4--0---0--2-2---4-4-4--0-----|

G|---------------------------------------------------------------------------|
D|---------------------------------------------------------------------------|
A|---------------------------------------------------------------------------|
E|---------------------2/5----------------------5--3~------------------------|
B|-4-4-4--0---4-4-4--0------4-4-4--0---4-4-4--0------------------------------|

  (6:29)                                       octaver:  on     off          x2
G|----------------------------------------------------------------------------|
D|*--------------------------------------------------------------------------*|
A|----------------------------------------------------------------------------|
E|*-2-2-2/-3-3-3-3-3/-5-5-5-5/-6-6-6-6\--2-2-2-------------------------------*|
B|---------------------------------------------3-3-3-3-3/-8-8-8-8\-2-2-2-2----|

   fuzz/distortion on                                off                         x4
G|-------------------------------------------------------|------------------------|
D|-------------------------------------------------------|*----------------------*|
A|-------------------------------------------------4-7---|--9-9--9-9--9-9---9-9---|
E|-0--1----3--4-------------------3-4----------4-5-------|*----------------------*|
B|-----------------2--3----6--7-------2-4--5-7-----------|------------------------|

  (7:27)
G|--------------------------------------------------------------------------------------|
D|--------------------------------------------------------------------------------------|
A|--------------------------------------------------------------------------------------|
E|--2-2-2-2-2-2-2-2-2-2-2-2-2-2-----------------------------5-5-5-5-5-5-5-5-5-5-5-5-5-5-|
B|------------------------------2-2-2-2-2-2-2-2-2-2-2-2-2-2-----------------------------|

G|---------------------------------|
D|---------------------------------|
A|---------------------------------|
E|---------------------------------|
B|--5-5-5-5-5-5-5-5-5-5-5-5-5-5----|

G|--------------------------------------------------------------------------------------|
D|--------------------------------------------------------------------------------------|
A|--------------------------------------------------------------------------------------|
E|--2-2-2-2-2-2-2-2-2-2-2-2-2-2---------------------------------------------------------|
B|------------------------------3-3-3-3-3-3-3-3-3-3-3-3-3-3-5-5-5-5-5-5-5-5-5-5-5-5-5-5-|

G|---------------------------------|
D|---------------------------------|
A|---------------------------------|
E|-5-5-5-5-5-5-4-4-4-4-4-4-4-4-----|
B|---------------------------------|

G|--------------------------------------------------------------------------------------|
D|--------------------------------------------------------------------------------------|
A|--------------------------------------------------------------------------------------|
E|--2-2-2-2-2-2-2-2-2-2-2-2-2-2---------------------------------------------------------|
B|------------------------------2-2-2-2-2-2-2-2-2-2-2-2-2-2-5-5-5-5-5-5-5-5-5-5-5-5-5-5-|

G|---------------------------------|
D|---------------------------------|
A|---------------------------------|
E|-5-5-5-5-5-5-5-5-5-5-5-5-5-5-----|
B|---------------------------------|

G|--------------------------------------------------------------------------------------------------|
D|--------------------------------------------------------------------------------------------------|
A|--------------------------------------------------------------------------------------------------|
E|--2-2-2-2-2-2-2-2-2-2-2-2-2-2-----------------------------5-5-5-5-5-5-5-5-5-5-5-5-5-5-------------|
B|------------------------------3-3-3-3-3-3-3-3-3-3-3-3-3-3-----------------------------5--5--5--0--|

G|---------------------------------|
D|--4---2--------------------------|
A|----4---4-2-------2--------------|
E|------------4-2-4---4-2----------|
B|------------------------4~-------|

                                                                                          x4
G|-----------------------------------------------------------------------------------------|
D|*---------------------------------------------------------------------------------------*|
A|-----------------------------------------------------------------------------------------|
E|*-2--2-2-2--2--2-2--2--5--5-5--5--5---------------------0-0-----------------------------*|
B|------------------------------------4-4-4-4-2-2-0-0-2-2----------------------------------|

     ??? (not sure about this part...)
G|---------------------------------------------------------------------------|
D|--4---2-4-2-------2---------2-----0----------------------------------------|
A|----4-------4-2-4---4-2-4-0---2-0---4-4---2-4-2----------------------------|
E|----------------------------------------4-------4-2-4----------------------|
B|---------------------------------------------------------------------------|

    octaver on
G|---------------------------------------------------------------------------|
D|---------------------------------------------------------------------------|
A|---------------------------------------------------------------------------|
E|--2br--0-0---2br--0-0--0---2br--0-0--2br--2br--0-0--0----------------------|
B|---------------------------------------------------------------------------|
         
G|---------------------------------------------------------------------------|
D|---------------------------------------------------------------------------|
A|---------------------------------------------------------------------------|
E|--2br--0-0---2br--0-0--0---2br--0-0--2br--2br--0--12br--12br---------------|
B|---------------------------------------------------------------------------|

                                                                                    octaver off (during slide)
G|---------------------------------------------------------------------------------------------------------|
D|---------------------------------------------------------------------------------------------------------|
A|---------------------------------------------------------------------------------------------------------|
E|--2b--0-0---2b--0-0--0---2b--0-0--2b--2b--0-0--0---2b--0-0--2b--0-0--0--2b--0-0---2b--2b--0--12br--12br\-|
B|---------------------------------------------------------------------------------------------------------|


4. Lapse


 Intro (0:00)                            
G|---------------------------------------------------------------------------|
D|---------------------------------------------------------------------------|
A|---------------------------------------------------------------------------|
E|---------------------------------------------------------------------------|
B|---------------------------------------------------------------------------|

  (0:20)
G|---------------------------------------------------------------------------|
D|---------------------------------------------------------------------------|
A|----------5-5-5-----------------------------5-5-5--------------------------|
E|--7-7-7-7-------5-7--5--7-5-7-5-3-5-7-7-7-7-------5----7-5h7-5-3-5---------|
B|----------------------------------------------------0--------------5-------|

G|---------------------------------------------------------------------------------|
D|---------------------------------------------------------------------------------|
A|----------5-5-5----------------------------------5-5-5---------------------------|
E|--3-3-3-3-------3-3-3--3--3---3-3--5-7-5-3-3-3-3-------5-3--1-3--3-3--3-3-3------|
B|---------------------------------------------------------------------------------|

G|----------------------------------------------------------------------------|
D|----------------------------------------------------------------------------|
A|----------------------------------------------------------------------------|
E|--7-7-7-7-7-7-7-5--7--5--7--5-7-5---5---5--7-7-7-7-7-7-7-5--7--7-5h7-5-7-5--|
B|----------------------------------8---8-------------------------------------|

G|------------------------------------------------------------------------------|
D|------------------------------------------------------------------------------|
A|--------------5-5-5-5-------------------------------5-5-5---------------------|
E|---5--3-3-3-3---------3-3-3-3-3-3-5--7-5-3--3-3-3-3-------5-3--1--3-1-3-1-0-1-|
B|-8----------------------------------------------------------------------------|

  (1:00)                                                                   x2
G|------------7--------------------14----------------------------------------|
D|*--------9-----7--5----------16-----14--12--------------------------------*|
A|---------------------------------------------------------------------------|
E|*-------------------------------------------------------------------------*|
B|--------------------3~----------------------12~----------------------------|

                                                                                     x2
G|------------------------------------------------------------------------------------|
D|*--------------------------------------------------7---7----------------7--7\------*|
A|-------------7---7---------------7--7\---------------9---9\-------------------------|
E|*--------------7---7\--------------------7--7---7-7-----------7--7---7-7-----------*|
B|--5--5---5-5-----------5--5---5-5---------------------------------------------------|

G|---------------------------------------------------------------------------|
D|---------------------------------------------------------------------------|
A|--3~-----------------------------------------------------------------------|
E|---------------------------------------------------------------------------|
B|---------------------------------------------------------------------------|

  (1:45) fuzz/distortion on
G|---------------------------------------------------------------------------------------------------------|
D|---------------------------------------------------------------------------------------------------------|
A|---------------------------------------------------------------------------------------------------------|
E|---------------------------------------5--5----------------------------------------------5---------------|
B|-0-0-3--3-0--0--0-3-0-3--3-0--0--0-0-0--3---3--0---0-0-3--3-0--0--0-3-0-3--3-0--0--0-0-0---0--5--3-3--5--|

G|---------------------------------------------------------------------------------------------------------|
D|---------------------------------------------------------------------------------------------------------|
A|---------------------------------------------------------------------------------------------------------|
E|---------------------------------------5--5----------------------------------------------5--2-0-2--------|
B|-0-0-3--3-0--0--0-3-0-3--3-0--0--0-0-0--3---3--0---0-0-3--3-0--0--0-3-0-3--3-0--0--0-0-0---------5-3\----|

G|------------------------------------------------------------------------------------------------------|
D|------------------------------------------------------------------------------------------------------|
A|------------------------------------------------------------------------------------------------------|
E|------------------------------7----------5--5--------------------------------7----------5-------------|
B|-0-0-3--3-0--0--0-3--0-5/7--0---0--0-0-0--3--3--0-0-3--3-0--0--0-3--0-5/7--0---0--0-0-0---5--3-3--5---|

G|-----------------------------------------------------------------------------------|
D|-------------------------------------------------------------------------7-4-------|
A|---------------------------------------------------------------------2-5-----2-----|
E|------7------------------7------------5--5--------7--------------------------------|
B|-0--0---0--0--0-3--0-5/7--0-0---0-0-0--3--3---0-0--0-0--0-3--0-5/7-0---------------|

  (2:25) fuzz/distortion off
G|----------9--------7----------11---11---------------4-----4------------9-11h13-11--|
D|---------9-9-----9---------11---------------------5-----5------9----11-------------|
A|--7-7-7-------7------9-9-9------9----9\--3-3--3-3-----3-----0----0-----------------|
E|-----------------------------------------------------------------------------------|
B|-----------------------------------------------------------------------------------|

G|-9------------------------------------------------------------------------|
D|---11-9-------------------------------------------------------------------|
A|--------12-9-----9\-5-7-----5-------5-------5/-7h9-7-9-7------------------|
E|-------------10---------5-7---7-5-7---7-5-7--------------7-7--7-7---------|
B|--------------------------------------------------------------------------|

G|---6/9-7~------------------------------------------------------------------|
D|-----------9\--------------------------------------------------------------|
A|----------------4---4---4-------4-4-4--------------------------------------|
E|------------------4---4---2-4----------------------------------------------|
B|---------------------------------------------------------------------------|

  (2:48) guitar solo
G|----------------------------------------------------------------------------------------|
D|------------------------7-------------------7-7--9-7------------------------------------|
A|--------5-7--7--7-5-7-----9-7\-5----------9----------9-8-7\-5---5---9----9-5------------|
E|--0-0--0--------------0----------7-5-7--7---------------------0---0---0------7-7-10-7-5-|
B|----------------------------------------------------------------------------------------|

G|------------------------------------------------------------------------------------|
D|------------------------------------------------------------------------------------|
A|-------------9-9-9--10-9-7----------7-9-10---------------9-7------------9----7------|
E|--------5------------------10-7--10-------------------9------10-7--7-7----10--------|
B|--7-5-7----7-------------------------------10-7-7b--7--------------------------7----|

G|----------------------------------------------------------------------------------|
D|----------------------------------------------------------------------------------|
A|--9--7----------------------------------------------------------------------------|
E|-------7-7--7--7--5--7------7--7--------------------------------------------------|
B|-----------------------5--7-------------------------------------------------------|

  (3:12)
G|------------7--------------------14----------------------------------------|
D|---------9-----7--5----------16-----14--12---------------------------------|
A|---------------------------------------------------------------------------|
E|---------------------------------------------------------------------------|
B|--------------------3~----------------------12~----------------------------|

                                            slide in slowly
G|------------7-----------------------9--7-----------------------------------|
D|---------9-----7--5--------------7-----------------------------------------|
A|------------------------------9--------------------------------------------|
E|---------------------------------------------------------------------------|
B|--------------------3~--------------------2/-------------------------------|

  (3:31) fuzz/distortion on
G|----------------------------------------------------------------------------------------|
D|------------------------------------------------------7--7--------7--7--7--7\-----------|
A|-------------------------------------------------------9--9\--------9--9--9-------------|
E|---------------------5-5-5-5-5-5-5-5-5-5--7-7-7-7-7-7--------7--7-7---------------------|
B|-/8-8-8-8-8-8-8-8-8-8-------------------------------------------------------------------|

G|----------------------------------------------------------------------------------------|
D|--------------------------------------------------------7--7----------7---7--7\---------|
A|---------------------------------------------------------9--9\----------9---------------|
E|--0-0-0-0-0-0-0-0-0-0--5-5-5-5-5-5-5-5-5-5--7-7-7-7-7-7--------7--7-7-------------------|
B|----------------------------------------------------------------------------------------|

  fuzz/distortion off
G|--------------------------------------------------------------------------------------|
D|--------------------------------------------------------------------------------------|
A|-------------------------------------------------------5---5-----------5---5--5-------|
E|---------------------------------5----5-5/--/10---------------------------------------|
B|--8--8---8-8--8-5--8-5---8---8-----8------------3--3-3---3---3--3--3-3---3------------|

                                                                                      let ring
G|--------------------------------------------------------------------------------------------|
D|------------------------------------------------------7---7---7-----------7---7-7\----------|
A|------------------------------------------------------------9---9\------------------3~------|
E|-----------------------------------------------7--7-7---7----------7--7-7---7---------------|
B|--8--8---8-8--8-8--8-8---8---8-8--8---8---8--8----------------------------------------------|

  (4:21) Outro - rest
G|---------------------------------------------------------------------------|
D|---------------------------------------------------------------------------|
A|---------------------------------------------------------------------------|
E|---------------------------------------------------------------------------|
B|---------------------------------------------------------------------------|


5. The Architect (featuring Einar Solberg)


 Intro (0:00)                            
G|---------------------------------------------------------------------------|
D|---------------------------------------------------------------------------|
A|---------------------------------------------------------------------------|
E|---------------------------------------------------------------------------|
B|---------------------------------------------------------------------------|

  (1:06)
G|---------------------------------------------------12----------------11--------7-------|
D|---------------------12--------------------13--10------10-----11---------9--------5-8--|
A|----------14-----10-------------15-----11------------------8------9---------7----------|
E|------12------8--------------13-----9--------------------------------------------------|
B|--10---------------------11------------------------------------------------------------|

G|--------------6--5-----------------------------------------------------------|
D|--7-----8-----------------------------------------9--8-----------------------|
A|--------------------5--6--5-----8--7--------------------5--6--8--7--9--------|
E|-----9-----8-----------------4--------4--7--5--9-----------------------8-----|
B|-----------------------------------------------------------------------------|

G|---------------------------------------------------12----------------11--------7-------|
D|---------------------12--------------------13--10------10-----11---------9--------5-8--|
A|----------14-----10-------------15-----11------------------8------9---------7----------|
E|------12------8--------------13-----9--------------------------------------------------|
B|--10---------------------11------------------------------------------------------------|

G|--------------6--5---------------------------------------------------------------------|
D|--7-----8-----------------------------------------9--8---------------------------------|
A|--------------------5--6--5-----8--7---------------------------------------------------|
E|-----9-----8-----------------4--------4--7--5--9---------------------------------------|
B|--------------------------------------------------------3--4--7--6--5--4---------------|

G|---------------------------------------------------------------------------|
D|---------------------------------------------------------------------------|
A|---------------------------------------------------------------------------|
E|---------------------------------------------------------------------------|
B|--2\1--1---2\1--1---2\1--1---3-5---2\1--1---2\1--1---2\1--1---7-9----------|

G|---------------------------------------------------------------------------|
D|---------------------------------------------------------------------------|
A|---------------------------------------------------------------------------|
E|--------------------------------------------------------------9-7-6--------|
B|--5\4--4---5\4--4---5\4--4---7-9---5\4--4---5\4--4---5\4--4----------------|

G|---------------------------------------------------12----------------11--------7-------|
D|---------------------12--------------------13--10------10-----11---------9--------5-8--|
A|----------14-----10-------------15-----11------------------8------9---------7----------|
E|------12------8--------------13-----9--------------------------------------------------|
B|--10---------------------11------------------------------------------------------------|

G|--------------6--5-----------------------------------------------------------|
D|--7-----8-----------------------------------------9--8-----------------------|
A|--------------------5--6--5-----8--7--------------------5--6--8--7--9--------|
E|-----9-----8-----------------4--------4--7--5--9-----------------------8-----|
B|-----------------------------------------------------------------------------|

G|---------------------------------------------------12----------------11--------7-------|
D|---------------------12--------------------13--10------10-----11---------9--------5-8--|
A|----------14-----10-------------15-----11------------------8------9---------7----------|
E|------12------8--------------13-----9--------------------------------------------------|
B|--10---------------------11------------------------------------------------------------|

G|--------------6--5---------------------------------------------------------------------|
D|--7-----8-----------------------------------------9--8---------------------------------|
A|--------------------5--6--5-----8--7---------------------------------------------------|
E|-----9-----8-----------------4--------4--7--5--9---------------------------------------|
B|--------------------------------------------------------3--4--5--6--7--8---------------|

  (1:51)
G|----------------------------------------------------------------------------|
D|------------------10--6-----6---------10--6-----6--------10--6-----6--------|
A|-------------------------7-----7-------------7-----7------------7-----7-----|
E|----------------------------------8-------------------8------------------8--|
B|------------1~--------------------------------------------------------------|

G|------------------------------------------------------------------------------------|
D|---10--6-----6---------10--6-----6--------10--6-----6-------------------------------|
A|----------7-----7-------------7-----7------------7-----7----------------------------|
E|-------------------8-------------------8------------------8---0-0--0-0--0-0--0-0----|
B|------------------------------------------------------------------------------------|

G|------------------------------------------------------------------------------------|
D|---10--6-----6---------10--6-----6--------10--6-----6--------10--6------------------|
A|----------7-----7-------------7-----7------------7-----7------------7---------8-9---|
E|-------------------8-------------------8------------------8-------------10-11-------|
B|------------------------------------------------------------------------------------|

G|--------------------------------------------------------------------------|
D|---12--8-----8---------12--8-----8---------12--8-----8--------------9-10--|
A|----------9-----9-------------9-----9-------------9-----------10-11-------|
E|-------------------10------------------10---------------12-13-------------|
B|--------------------------------------------------------------------------|

G|----------------------------------------------------------------------------------|
D|--14--10------10----------14--10------10------10----------14--10------10----------|
A|----------11------11--------------11------11------11--------------11------11------|
E|----------------------12------------------------------12----------------------12--|
B|----------------------------------------------------------------------------------|

G|------------------------7-8---11--7-----7--------11--7-----7-----7-----7--------|
D|--14--10------10---9-10--------------8-----8------------8-----8-----8-----8-----|
A|----------11----------------------------------9------------------------------9--|
E|--------------------------------------------------------------------------------|
B|--------------------------------------------------------------------------------|

G|--11--7-----7------------------9-10-11---12--8-----8---------12--8-----8-----8---------|
D|---------8-----8------11-12-13------------------9-----9-------------9-----9-----9------|
A|------------------9--------------------------------------10------------------------10--|
E|---------------------------------------------------------------------------------------|
B|---------------------------------------------------------------------------------------|

G|--12--8-----8-----8-----8---------12--8-----8---------12--8-----8-----8------------|
D|---------9-----9-----9-----9-------------9-----9-------------9-----9-----9---------|
A|------------------------------10------------------10------------------------10-----|
E|-----------------------------------------------------------------------------------|
B|-----------------------------------------------------------------------------------|

G|--12--8-----8-----8-----8--------------------------------------------------------|
D|---------9-----9-----9-----9-----------------------------------------------------|
A|------------------------------10-------------------------------------------------|
E|---------------------------------------------------------------------------------|
B|----------------------------------0--0--0--0-0--0--0-0-0---0--0--0-0--0--0-0-0---|

                              let ring
G|---------------------------------------------------------------------------|
D|--------1-2-4--------------------------------------------------------------|
A|--2-3-4---------------------0~---------------------------------------------|
E|---------------------------------------------------------------------------|
B|---------------1~----------------------------------------------------------|

  (2:48) rest
G|---------------------------------------------------------------------------|
D|---------------------------------------------------------------------------|
A|---------------------------------------------------------------------------|
E|---------------------------------------------------------------------------|
B|---------------------------------------------------------------------------|

  (3:01)
G|---------------------------------------------------------------------------|
D|---------------------------------------------------------------------------|
A|---------------------8------------------------------------5----------------|
E|--5------4--------------------6----5-----4--------------------6------------|
B|---------------6--6------3---------------------6-----3--3------------------|

                                                                            x2
G|---------------------------------------------------------------------------|
D|*-------------------------------------------------------------------------*|
A|---------------------------------------------------------------------------|
E|*-----5-5-5-5--5-5--5-5-5--5-5-5-5-5-5--5-5--3-5-5------------------------*|
B|---------------------------------------------------------------------------|

                                                                             x2
G|----------------------------------------------------------------------------|
D|*--------------------------------------------------------------------------*|
A|-------------3---------5----------------------------------------------------|
E|*--------5-----5--5-5----5-5--5-5--5-5--5-5-5--3-5-5-----------------------*|
B|----------------------------------------------------------------------------|

  (3:50)
G|-----------------------------------------------------------------------------------------------|
D|----------7------------------------------------------------------------------------------------|
A|----------------------------------3-5-2----------------5---------------------------------------|
E|--5-5-5-5---5--5-5-5-5-3-3--3-3-3-------5-3-0------------------------1-1--1-1-1-1-1-1-1-1-1-1--|
B|-----------------------------------------------3-3-3-3----3--3-3-3-3---------------------------|

G|-----------------------------------------------------------------------------------|
D|----------7------------------------------------------------------------------------|
A|------------------------------------0-0-2-2-3-3------------------------------------|
E|--5-5-5-5---5--5-5-5-5-3-3--3-3-3-3------------------------------1-1-1-1-1-1-1-1---|
B|-------------------------------------------------3-3-3-3-3-3-3-3-------------------|

G|-----------------------------------------------------------------------------------------------|
D|----------7------------------------------------------------------------------------------------|
A|----------------------------------3-5-2----------------5---------------------------------------|
E|--5-5-5-5---5--5-5-5-5-3-3--3-3-3-------5-3-0------------------------1-1--1-1-1-1-1-1-1-1-1-1--|
B|-----------------------------------------------3-3-3-3----3--3-3-3-3---------------------------|


G|-----------------------------------------------------------------------------------|
D|----------7------------------------------------------------------------------------|
A|------------------------------------0-0-2-2-3-3------------------------------------|
E|--5-5-5-5---5--5-5-5-5-3-3--3-3-3-3------------------------------------------------|
B|-------------------------------------------------3-3-3-3-3-3-3-3-1-1-1-1-1-1-1-1---|

  (4:20)
G|----------------------------------------------------------------------------------------------|
D|----------------------------------------------------------------------------------------------|
A|----------------------------------------------------------------------------------------------|
E|--5-5-5-5-5-5--5-5-5-5-5-5-5-5-5-5-5-5-----5-5-5-5-5-5--5-5-5-5-5-5-5-5-5-5-5-5--5-5-5-5-5-5--|
B|----------------------------------------------------------------------------------------------|

G|-------------------------------------------------------------------------------------------|
D|-------------------------------------------------------------------------------------------|
A|-------------------------------------------------------------------------------------------|
E|--4-4-4-4-4-4--4-4-4-4-4-4-4-4-4-4-4-4--4-4-4-4-4-4--1-1-1-1-1-1--1-1-1-1-1-1-1-1-1-1-1-1--|
B|-------------------------------------------------------------------------------------------|

G|-------------------------------------------------------------------------------|
D|-------------------------------------------------------------------------------|
A|-------------------------------------------------------------------------------|
E|--1-1-1-1-1-1---------------------------6-6-6-6-6-6--6-6-6-6-6-6--5-5-5-5-5-5--|
B|---------------3-3-3-3-3-3--3-3-3-3-3-3----------------------------------------|

G|-------------------------------------------------------------------------------------------|
D|-------------------------------------------------------------------------------------------|
A|-------------------------------------------------------------------------------------------|
E|--5-5-5-5-5-5-5-5-5-5-5-5--5-5-5-5-5-5--4-4-4-4-4-4--4-4-4-4-4-4-4-4-4-4-4-4--4-4-4-4-4-4--|
B|-------------------------------------------------------------------------------------------|

G|------------------------------------------------------------------------------------------------------|
D|------------------------------------------------------------------------------------------------------|
A|------------------------------------------------------------------------------------------------------|
E|--1-1-1-1-1-1--1-1-1-1-1-1-1-1-1-1-1-1--1-1-1-1-1-1---------------------------6-6-6-6-6-6--6-6-6-6-6--|
B|-----------------------------------------------------3-3-3-3-3-3--3-3-3-3-3-3-------------------------|

  (4:49)
G|---------------------------------------------------------------------------------------------|
D|-----7-5----------------------7--7---------------------7-5--------------------------7--7-----|
A|---------7------------------------------0-0---0-1------------7-------------------------------|
E|--5--------5--5--5-5--5--5-5---------5------3-------5--5-------5--5-5--5-5--5--5-5--------5--|
B|---------------------------------------------------------------------------------------------|

G|-------------------------------------------------------------------|
D|-------------------7-5------------------------7--7-----------------|
A|--0---0----------------7--------------------------------0-0---0-1--|
E|----3---5-6b--5--5-------5--5-5--5-5--5--5-5---------5------3------|
B|-------------------------------------------------------------------|

G|--------------------------------------------------------|
D|-------7-5-----------------------7--7-------------------|
A|-----------7------------------------------0----0-1b-----|
E|--5--5--------5--5--5-5--5--5-5---------5----3----------|
B|--------------------------------------------------------|

  (5:17)
G|-----------------------------------------------------------------------------------------------|
D|----------7------------------------------------------------------------------------------------|
A|----------------------------------3-5-2----------------5---------------------------------------|
E|--5-5-5-5---5--5-5-5-5-3-3--3-3-3-------5-3-0------------------------1-1--1-1-1-1-1-1-1-1-1-1--|
B|-----------------------------------------------3-3-3-3----3--3-3-3-3---------------------------|

G|-----------------------------------------------------------------------------------|
D|----------7------------------------------------------------------------------------|
A|------------------------------------0-0-2-2-3-3------------------------------------|
E|--5-5-5-5---5--5-5-5-5-3-3--3-3-3-3------------------------------1-1-1-1-1-1-1-1---|
B|-------------------------------------------------3-3-3-3-3-3-3-3-------------------|

G|-----------------------------------------------------------------------------------------------|
D|----------7------------------------------------------------------------------------------------|
A|----------------------------------3-5-2----------------5---------------------------------------|
E|--5-5-5-5---5--5-5-5-5-3-3--3-3-3-------5-3-0------------------------1-1--1-1-1-1-1-1-1-1-1-1--|
B|-----------------------------------------------3-3-3-3----3--3-3-3-3---------------------------|

                                                                                     let ring
G|----------------------------------------------------------------------------------------|
D|----------7-----------------------------------------------------------------------------|
A|------------------------------------0-0-2-2-3-3---------------------------3--2----------|
E|--5-5-5-5---5--5-5-5-5-3-3--3-3-3-3---------------------------------------------3--5~---|
B|-------------------------------------------------3-3-3-3-3-3-3-3-1-1-1-1----------------|

  (5:59) rest
G|---------------------------------------------------------------------------|
D|---------------------------------------------------------------------------|
A|---------------------------------------------------------------------------|
E|---------------------------------------------------------------------------|
B|---------------------------------------------------------------------------|

  (6:36) bass solo
G|--------------9------12----9----------------------------------12-14-15-14-17-19---------------|
D|--7---7-10-10-----12----9-----10-9-7----------12-----14-12-14-------------------20-19---------|
A|---------------------------------------15-14-----14-----------------------------------20-17---|
E|----------------------------------------------------------------------------------------------|
B|----------------------------------------------------------------------------------------------|

G|-----------17-19-21-19-17-19-------------------------------------------15--15/19--18---18-15--------|
D|--------17-------------------20-19-------17-17h19-17\-12h14------------15--15/19--18---------18-15--|
A|--17/19----------------------------20-17--------------------15br\--13------13/17--16----------------|
E|----------------------------------------------------------------------------------------------------|
B|----------------------------------------------------------------------------------------------------|

G|------------------------------15h17/19-17-15-------------------------------------|
D|-----------------------15-18-----------------18-15-------------------------------|
A|--19-16----------16-19-----------------------------19-16-------------------------|
E|--------18-16-18-----------------------------------------18-17br\--17-14-12-14b--|
B|---------------------------------------------------------------------------------|

G|------------------------------------12------------------|
D|--------11-12br-----12h14--12-14-15----14--15-14-12-----|
A|--12-14----------12-------------------------------------|
E|--------------------------------------------------------|
B|--------------------------------------------------------|

  (7:13)
G|--------16-------19-------16-------19-------16-------19-------16-------19-------16-------19----|
D|-----14-------17-------14-------17-------14-------17-------14-------17-------14-------17-------|
A|--12-------15-------12-------15-------12-------15-------12-------15-------12-------15----------|
E|-----------------------------------------------------------------------------------------------|
B|-----------------------------------------------------------------------------------------------|

G|--------19-------22-------19-------22-------19-------22-------19-------22-------19-------22----|
D|-----17-------20-------17-------20-------17-------20-------17-------20-------17-------20-------|
A|--15-------18-------15-------18-------15-------18-------15-------18-------15-------18----------|
E|-----------------------------------------------------------------------------------------------|
B|-----------------------------------------------------------------------------------------------|

G|--------18-------21-------18-------21-------18-------21-------18-----9-----9------12----|
D|-----16-------19-------16-------19-------16-------19-------16------7-----7-----10-------|
A|--14-------17-------14-------17-------14-------17-------14-------5-----5-----8----------|
E|----------------------------------------------------------------------------------------|
B|----------------------------------------------------------------------------------------|

G|------9------12----9------12-----9------12-----9------12-----9------12\----|
D|----7-----10-----7-----10------7-----10------7-----10------7-----10--------|
A|--5-----8------5-----8-------5-----8-------5-----8-------5-----8-----------|
E|---------------------------------------------------------------------------|
B|---------------------------------------------------------------------------|

  (7:50) octaver on
G|--------------------------------------------------------------------------------------|
D|--------------------7-7--------------------7------------------------------10----------|
A|----------------------------------7-------------------7---7--------------------10-----|
E|---5---3h5-5-5---5------5---5-5-5---5--5-5---5-5-5--5---5-----8--8-8-8--8----8----8---|
B|--------------------------------------------------------------------------------------|

G|--------------------------------------------------------------------------------------------|
D|--------------------------10----------10--------------------9---------------9---------------|
A|---------------10----10------------------10---------------------9-------9-------9-----9-----|
E|--8-8-8--8-8-8-----8----8----8--8-8-8-------8---7--7-7-7--7---7----7--7---7---7----7----7---|
B|--------------------------------------------------------------------------------------------|

G|-------------------------------7--5-----------7\----------------------------7-5----|
D|------------------------------------7-------------------------------------------7--|
A|------9-----------9---9---5--5---------5--5-5----------5--3------5/8---5--5--------|
E|--7-7---7-10-7--7---7---------------------------------------5----------------------|
B|--------------------------------------------------3--3--------3--------------------|

G|-----------------------------------------------------------------------------------------|
D|-------7-7-----------7------7----------------------7-5------------10--8--------------10--|
A|-----------7------------------7-----------7------7-----7----------------10-----10-10-----|
E|---5---------5---5-5-----5------5-5---5-5----5-8---------5/8--8-8-----------8------------|
B|-----------------------------------------------------------------------------------------|

G|------------------------------------------------------------------------------------|
D|--------10--8--------------8-10------10--------------9--7----9--11--12----9-------9-|
A|--------------10--------10------10--------10--------------9-------------9---9---9---|
E|-8--8-8-----------8--11------------8----8----8--7--7--------------------------7-----|
B|------------------------------------------------------------------------------------|

G|------------------------------------------------------------------7--5----------7-----7--|
D|------------9-7--------------------------------------------------------7------7-----7----|
A|----------9-----9---------------5---------------------5--------5---------5--5-----5------|
E|-7-----7----------7-9-10\---------5---------------------5--------------------------------|
B|----0----------------------3--3-----3-3--5-6-5-3-3--3-----3-3----------------------------|

G|---------------------------------------------------------------------------------------|
D|--------7----------7--------7-----------------------7-5-------10--8------------10------|
A|----------7--------------------7-----------7-5----------------------10-----------------|
E|--5--5------5-5--5----5--5-------5-5--8-5-------8-5------8--8-----------8--8-8-----8---|
B|---------------------------------------------------------------------------------------|

G|--------------------------------------------------------------------------------------------|
D|-----10--8--------------8-10------10-----------------9-11-12\--------9--7--------------9----|
A|-----------10--------10------10------10-----------------------------------9--------9--------|
E|-8-8-----------8--11------------8--------8--7-----7-------------7--7--------7--7-7---7---7--|
B|----------------------------------------------0-0-------------------------------------------|

G|-----------------------------------------------------7-5-------7-5-------|
D|----------9----------------------------------------------7---7-----7-----|
A|------9-----------5-3--------5------------5--------5-------5---------5---|
E|--7-7---7-----------------------------------5----------------------------|
B|-------------3--3-----3-3--3-----3-x-x-x------3-3------------------------|

  (9:41)
G|------4-----7------4-----7-----4-----7-----4-----7-----4-----7--------------------------|
D|----2-----5------2-----5-----2-----5-----2-----5-----2-----5----------------------------|
A|--0-----3------0-----3-----0-----3-----0-----3-----0-----3---------5-----8-----5-----8--|
E|-----------------------------------------------------------------3-----6-----3-----6----|
B|---------------------------------------------------------------1-----4-----1-----4------|

G|---------------------------------------------------------------------------------------------------|
D|---------------------------------------------------------------------------------------------------|
A|------5-----8-----5-----8-----5-----8-----4-----7-----4-----7-----4-----7-----4-----7-----4-----7--|
E|----3-----6-----3-----6-----3-----6-----2-----5-----2-----5-----2-----5-----2-----5-----2-----5----|
B|--1-----4-----1-----4-----1-----4-----0-----3-----0-----3-----0-----3-----0-----3-----0-----3------|

G|---------------------------------------------------------------------|
D|---------------------------------------------------------------------|
A|------7-----10-----7-----10-----7-----10-----7-----10-----7-----10---|
E|----5-----8------5-----8------5-----8------5-----8------5-----8------|
B|--3-----6------3-----6------3-----6------3-----6------3-----6--------|

  (10:17) octaver off
G|-----------------------------------------------------------------------------------|
D|*----------------------------------------------------------------------------------|
A|--0-0--0--0-0--0-0-0-0--0-0--0--0-0--0-0--3-3--3--3-3--3-3-3-3--3-3--3--3-3--3-3---|
E|*----------------------------------------------------------------------------------|
B|-----------------------------------------------------------------------------------|

                                                                                       x2
G|--------------------------------------------------------------------------------------|
D|-------------------------------------------------------------------------------------*|
A|--1-1--1--1-1--1-1-1-1--1-1--1--1-1--1-1--4-4--4--4-4--4-4-4-4--4-4--4--4-4--4-4-4-4--|
E|-------------------------------------------------------------------------------------*|
B|--------------------------------------------------------------------------------------|

  (10:45)
G|----------------------------------------------------------------------------------|
D|----------------------------------------------------------------------------------|
A|----------------------------------------------------------------------------------|
E|--5-5--5--5-5--5-5-5-5--5-5--5--5-5--5-5--8-8--8--8-8--8-8-8-8--8-8--8--8-8--8-8--|
B|----------------------------------------------------------------------------------|

G|--------------------------------------------------------------------------------------|
D|--------------------------------------------------------------------------------------|
A|--------------------------------------------------------------------------------------|
E|--6-6--6--6-6--6-6-6-6--6-6--6--6-6--6-6--9-9--9--9-9--9-9-9-9--9-9--9--9-9--9-9-9-9--|
B|--------------------------------------------------------------------------------------|

G|-------------------------------------------------------------------------------------------|
D|-------------------------------------------------------------------------------------------|
A|--------------14-14--14-15-14-----12-12--------------------------------17-17--17-18-17-----|
E|--------12-12-----------------15--------15-15-12-12-14-14--------15-15-----------------18--|
B|--10-10----------------------------------------------------13-13---------------------------|

G|------------------------------------------------------------------------------------|
D|------------------------------------------------------------------------------------|
A|--15-15--------------------------------15-15--15-16-15-----13-13--------------------|
E|--------18-18-15-15-17-17--------13-13-----------------16--------16-16-13-13-15-15--|
B|---------------------------11-11----------------------------------------------------|

G|-----------------------------------------------|
D|-----------------------------------------------|
A|--------------18-18--18-19-18-16------18-16\---|
E|--------16-16----------------------16----------|
B|--14-14----------------------------------------|

  (11:13)                                                octaver + fuzz/distortion on
G|------------------------------------------------------------------------------------------|
D|------------------------------------------------------------------------------------------|
A|------------------------------------------------------------------------------------------|
E|--3--3--3--3-3--3--3-3-3--3--3--3-3--3--3-3-3--3/15\3--3-x-3-x-3-x-3-3-x-3-x-3-3-3-x-x-x--|
B|------------------------------------------------------------------------------------------|

G|---------------------------------------------------------------------------------------------|
D|----------------------------------------5---------5-----------5--------5---------5-----------|
A|-------------------------------------4----4-4--4----4-4--4-4----4---4----4-4--4----4-4--4/14-|
E|--3-x-3-x-3-3-x-3-x-3-3-3-x-3----------------------------------------------------------------|
B|------------------------------3-0-1----------------------------------------------------------|

G|-----------------------------------------------------------------------------|
D|-----------------------------------------------------------------------------|
A|-----------------------------------------------------------------------------|
E|-------7----------7------------7--------7----------7------------7-4----------|
B|-2/(5)----2-2/(5)----2-2-2/(5)----2/(5)----2-2/(5)----2-2-2/(5)-----6-5-4-3--|

  (11:45)
G|--------------------------------------------------------------------------------------|
D|--------------------------------------------------------------------------------------|
A|------------------------------------------------14\-10-6---6------10-6---6---6--------|
E|-3--3-3--3--3-3--3--3-3--3--3-3--3-3--3--3-3-3-----------7---7---------7---7---7------|
B|---------------------------------------------------------------8-----------------8----|

G|--------------------------------------------------------------------------------|
D|--------------------------------------------------------------------------------|
A|-10-6---6---6---6-------10-6---6------10-6---6---6-------10-6---6---6---6-------|
E|------7---7---7---7----------7---7---------7---7---7----------7---7---7---7-----|
B|--------------------8--------------8-----------------8----------------------8\--|

G|----------------------------------------------------------------------------------------|
D|----------------------------------------------------------------------------------------|
A|--4-4p0-4--4-4p0-4--4-4-4-4p0--4-4p0-4--4p0-4-4-4-4-4p0--4-4p0-4--4p0--4-4-4-4p0-4-4p0--|
E|----------------------------------------------------------------------------------------|
B|----------------------------------------------------------------------------------------|

G|--------------------------------|
D|--------------------------------|
A|-4-4-4-4-0-4-4-4-4-4-4----------|
E|--------------------------------|
B|--------------------------------|

  (12:18)
G|----------------------------------------------------------------------------------|
D|*---------------------------------------------------------------------------------|
A|----------4--------------4-4---------4-------------4-4---------4-4---------5------|
E|*-----3-3---2b-------3-3---------3-3---2b------3-3---------3-3---------4-4---2b---|
B|--2-2------------2-2---------2-2-----------2-2---------2-2---------3-3------------|

                                                        x3
G|-------------------------------------------------------|
D|------------------------------------------------------*|
A|----------5-5---------5-------------5-5---------5-5----|
E|------4-4---------4-4---2b------4-4---------4-4-------*|
B|--3-3---------3-3-----------3-3---------3-3------------|

G|----------------------------------------------------------------------------------|
D|----------------------------------------------------------------------------------|
A|----------4--------------4-4---------4-------------4-4---------4-4---------5------|
E|------3-3---2b-------3-3---------3-3---2b------3-3---------3-3---------4-4---2b---|
B|--2-2------------2-2---------2-2-----------2-2---------2-2---------3-3------------|

G|--------------------------------------------------------|
D|--------------------------------------------------------|
A|----------5-5---------5-------------5-5----------5-5-5--|
E|------4-4---------4-4---2b------4-4--------4-4-4--------|
B|--3-3---------3-3-----------3-3-------------------------|

  (13:02)                                                  ??? (not sure about this part)
G|-----------------------------------12------------11--------------------------------7--------|
D|------9------12-----10------13--10----10----11------9-8\---12-11-------5---8-7---7----------|
A|----7-----10------8------11---------------8----8---------7-------10\-----0-----5-----5-7-3--|
E|--5-----8-------6------9--------------------------------------------------------------------|
B|--------------------------------------------------------------------------------------------|

G|-----------------------------------12------------11--------------------------------7--------|
D|------9------12-----10------13--10----10----11------9-8\---12-11-------5---8-7---7----------|
A|----7-----10------8------11---------------8----8---------7-------10\-----0-----5-----5-7-3--|
E|--5-----8-------6------9--------------------------------------------------------------------|
B|--------------------------------------------------------------------------------------------|

                   octaver + fuzz/distortion off
G|-----------------------------------------------------------------------------|
D|-----------------------------------------------------------------------------|
A|--1-1-2-2-3-3----------------------------------------------------------------|
E|-----------------5-5--5--5--5-5--5-5--3-3--3--3--3-3--3----------------------|
B|---------------------------------------------------------3--3--3--3-3--3-3---|

G|------------------------------------------------------------------------------------------|
D|------------------------------------------------------------------------------------------|
A|---------------------------------------3--3--3-3--3-3--5-5-5--5-5--5-5--3-3-3--2-2--2-2---|
E|-------------------5-5-5--5--5-5--5-5-----------------------------------------------------|
B|--6-6-6--8-8--8-8-------------------------------------------------------------------------|

G|-------------------------------------------------------------------------------|
D|-------------------------------------------------------------------------------|
A|-------------------------------------------------------------------------------|
E|--5-5--5--5--5-5--5-5--3-3--3--3--3-3--3---------------------------------------|
B|------------------------------------------3--3--3--3-3--3-3--6-6-6--8-8--8-8---|

G|----------------------------------------------------------------|
D|----------------------------------------------------------------|
A|----------------------------------------------------------------|
E|--5-5-5--5--5-5--5-5--8--8--8--8-8--8--8--8--10-10-10-8-8-7-7---|
B|----------------------------------------------------------------|

G|------------------------------------------------------------------------------|
D|------------------------------------------------------------------------------|
A|----------------------3-3-3-3-3-3-3-3-3-3-3-5-5-5-5-5-5-5-5-5-5---3---2--0~---|
E|--5-5-5-5-5-5-5-5-5-5---------------------------------------------------------|
B|------------------------------------------------------------------------------|

G|------------------------------------------------------------------|
D|--------------------------------------------------3~---6~---------|
A|------------------------------------------------------------------|
E|---3~--------------------------1~-----0~------1~-------4~---------|
B|---------3~------1~-----0~----------------------------------------|

  (14:24)
G|----------------------------------------------------------------------------------|
D|----------------------------------------------------------------------------------|
A|----------------------------------------------------------------------------------|
E|--5-5-5-5-5-5--5--5-5-5-5-5-5-5-5-5-5--5-5--5-5-5-5-5-5-5-5--3-3--3--3-3-3-3-3-3--|
B|----------------------------------------------------------------------------------|

G|-------------------------------------------------------------------------------------------|
D|-------------------------------------------------------------------------------------------|
A|-------------------------------------------------------------------------------------------|
E|--3-3--3-3-3-3-3-3-3-3-3-3-3-3-------------------------------------------------------------|
B|--------------------------------3-3--3--3-3-3-3-3-3-3-3--3-3--3--3-3-3--1-1--1-1--1-1-1-1--|

G|--------------------------------------------------------------------------------------------------|
D|--------------------------------------------------------------------------------------------------|
A|--------------------------------------------------------------------------------------------------|
E|---------------------------1-1-1-1--1-1--1-1-1-1-1-1--1-1--1-1-1-1-1-1-1-1--0-0--0-0-0-0-0-0-0-0--|
B|-0-0-0-0--0-0-0-0-0-0-0-0-------------------------------------------------------------------------|

G|---------------------------------------------------------------------------------------------------|
D|---------------------------------------------------------------------------------------------------|
A|---------------------------------------------------------------------------------------------------|
E|--0-0--0-0-0-0--1-1-1-1-1-1--1-1--1-1-1-1-1-1-1-1--1-1--4-4-4-4-4-4-4-4--4-4--4-4-4-4--4-4-4-4-4-4-|
B|---------------------------------------------------------------------------------------------------|

G|----------------------------------------------------------------------------------|
D|----------------------------------------------------------------------------------|
A|----------------------------------------------------------------------------------|
E|--5-5-5-5-5-5--5--5-5-5-5-5-5-5-5-5-5--5-5--5-5-5-5-5-5-5-5--3-3--3--3-3-3-3-3-3--|
B|----------------------------------------------------------------------------------|

G|-------------------------------------------------------------------------------------------|
D|-------------------------------------------------------------------------------------------|
A|-------------------------------------------------------------------------------------------|
E|--3-3--3-3-3-3-3-3-3-3-3-3-3-3-------------------------------------------------------------|
B|--------------------------------3-3--3--3-3-3-3-3-3-3-3--3-3--3--3-3-3--1-1--1-1--1-1-1-1--|

G|--------------------------------------------------------------------------------------------------|
D|--------------------------------------------------------------------------------------------------|
A|--------------------------------------------------------------------------------------------------|
E|---------------------------1-1-1-1--1-1--1-1-1-1-1-1--1-1--1-1-1-1-1-1-1-1--0-0--0-0-0-0-0-0-0-0--|
B|-0-0-0-0--0-0-0-0-0-0-0-0-------------------------------------------------------------------------|

G|----------------------------------------------------------------------------------------------------------|
D|----------------------------------------------------------------------------------------------------------|
A|----------------------------------------------------------------------------------------------------------|
E|--0-0--0-0-0-0--1-1-1-1-1-1--1-1--1-1-1-1-1-1-1-1--1-1--4-4-4-4-4-4-4-4--4-4--4-4-4-4/--16-16-16-16-16-16-|
B|----------------------------------------------------------------------------------------------------------|

                  x15
G|------------------|----------------------------------------------------------|
D|*----------------*|----------------------------------------------------------|
A|--12p0-0-0-0-0----|---12-12-12-12--------------------------------------------|
E|*----------------*|----------------------------------------------------------|
B|------------------|----------------------------------------------------------|


6. Earthrise


 [Intro] (0:00)                            
G|---------------------------------------------------------------------------|
D|---------------------------------------------------------------------------|
A|---------------------------------------------------------------------------|
E|---------------------------------------------------------------------------|
B|---------------------------------------------------------------------------|

  (0:14)
G|---------------------------------------------------------------------------|
D|-------7-------------------------------------------------------------------|
A|---------7---7-------7-----------------------------------------------------|
E|-5--5------5----0-0---0-------7-----7------7-------------------------------|
B|-------------------------0--0---0-0---0-0---0------------------------------|

G|---------------------------------------------------------------------------|
D|-------7-------------------------------------------------------------------|
A|---------7---7-------7-----------------------------------------------------|
E|-5--5------5----0-0---0-------7-----7------7-------------------------------|
B|-------------------------0--0---0-0---0-0---0---0--------------------------|

G|---------------------------------------------------------------------------|
D|-------7-------------------------------------------------------------------|
A|---------7---7-------7-----------------------------------------------------|
E|-5--5------5----0-0---0-------7-----7------7-------------------------------|
B|-------------------------0--0---0-0---0-0---0------------------------------|

                             fuzz/distortion on
G|---------------------------------------------------------------------------|
D|------7--------------------------------------------------------------------|
A|--------7---4--4-4--4-4~---2-2---2---2---2---2-----------------------------|
E|-5--5-----5----------------------------------------------------------------|
B|-------------------------------0---0---0---0---0~--------------------------|

fuzz/distortion off
G|-----------------------------------------------------------------------------|
D|---------7--------------9-9-------7------------------------------------------|
A|----------------------------------------------4-2----------------------------|
E|--5-5--5----5-5--5-5--7------5-5----5--5-5--5-----4--5-5--5-5--5-5--5-7-7-7--|
B|-----------------------------------------------------------------------------|

G|---------------------------------------------------------------------------------|
D|---------------------------------------------------------------------------------|
A|-------------------4-7---9----------------5-7--------------------------4/14\11---|
E|--5-5--5-5--5-5--5-----9----5-5--5-5--5-7-----9--7-9--5-5--5-5--5-5--5-----------|
B|---------------------------------------------------------------------------------|

G|-----------------------------------------------------------------------------|
D|-----------------------------------------------------------------------------|
A|------------------------------------4------2--4------------------------------|
E|--5-5--5-5--5-5--5-7---7--5-5--5-5---0-2-4-------4~--------------------------|
B|---------------------7-------------------------------------------------------|

(1:13) octaver + fuzz/distortion on
G|-----------------------------------------------------------------------------------------------|
D|-----------------------------------------------------------------------------------------------|
A|--0-0-0-0-0-0-0-0-2---0-0-0-0-0-0-0-0-2-------------------2-------------------2----------------|
E|------------------------------------------2-2-2-2-2-2-2-2-----2-2-2-2-2-2-2-2------------------|
B|-----------------------------------------------------------------------------------------------|

octaver + fuzz/distortion off                                             fuzz/distortion on
G|--8----------------------------------------------------------------------------------------|
D|---9-7----------------------------------------------------------------------7---9h11-11-9--|
A|------9-7----7-9-7-7-9------------------------------4-4-4-2--------------------------------|
E|---------9-10-----8----5-5/-17-17---------5--5-5-5-----------5--5-5-5--5--5--5-------------|
B|-------------------------------------------------------------------------------------------|

G|---------------------11-11-----------------------------------------------|
D|------7--------------------11-11-9--11-11\-------------------------------|
A|-----------4-4-4-4-------------------------------------------------------|
E|--5-5---5----------------------------------5--5-5--5-5--5h7-7\---7-7\----|
B|---------------------------------------------------------------0---------|

G|------------------------------------------------------------------------------------|
D|------------------------------------------------------------------------------------|
A|------------------------------------------------------------------------------------|
E|--5-5--5-5--5-5--5-9-9--9--4-5-5--5-5--5-5--5-7-7\---7-7\-5-5--5-5----9\--------4~--|
B|---------------------------------------------------0----------------------2--4------|

(1:57) octaver on
G|-----------------------------------------------------------------------------------------------|
D|-----------------------------------------------------------------------------------------------|
A|--0-0-0-0-0-0-0-0-2---0-0-0-0-0-0-0-0-2-------------------2-------------------2----------------|
E|------------------------------------------2-2-2-2-2-2-2-2-----2-2-2-2-2-2-2-2------------------|
B|-----------------------------------------------------------------------------------------------|

G|---------------------------------------------------------------------------|
D|---------------------------------------------------------------------------|
A|--0-0-0~----2---0-0-0~----2---------------2--------------------------------|
E|-------------------------------2-2--2-2-2------0-0--0-0-0------------------|
B|---------------------------------------------------------------------------|

fuzz/distortion off
G|---------------------------------------------------------------------------|
D|-------7-------------------------------------------------------------------|
A|---------7---7-------7-----------------------------------------------------|
E|-5--5------5----0-0---0-------7-----7------7-------------------------------|
B|-------------------------0--0---0-0---0-0---0------------------------------|

G|---------------------------------------------------------------------------|
D|-------7-------------------------------------------------------------------|
A|---------7---7-------7-----------------------------------------------------|
E|-5--5------5----0-0---0-------7-----7------7--7----------------------------|
B|-------------------------0--0---0-0---0-0---0--0---------------------------|

G|---------------------------------------------------------------------------|
D|-------7-------------------------------------------------------------------|
A|---------7---7-------7-----------------------------------------------------|
E|-5--5------5----0-0---0-------7-----7------7-------------------------------|
B|-------------------------0--0---0-0---0-0---0---0--------------------------|

                                                  octaver off
G|---------------------------------------------------------------------------|
D|------7--------------------------------------------------------------------|
A|--------7---4--4-4--4-4~---2-2---2---2---2---2-----------------------------|
E|-5--5-----5----------------------------------------------------------------|
B|-------------------------------0---0---0---0---0~--------------------------|

(2:54)
G|------------------------------------------------------------------------------------|
D|-----------------------------4--6-7-6----------------7-7----------------------------|
A|-----------------------4-9-6---------9-7-6-7-6------------5-6-7---------------------|
E|--5--5-5-5-----5-5--7-------------------------9-7-5\-----------5--------------------|
B|------------------------------------------------------------------------------------|

G|------7-5-----------------------------------------------------------------------------------------------|
D|--7-7----7-5-7-5-4-5-7-5----------------------7--7-7--------------------------------------------4-------|
A|------------------6---------------------------------------9-7-7-6----3--------------------4-5-0---6-7---|
E|-------------------------7-7--7-7-9-7----5-5---------5-----------7-5--4-2-0-5-5-5-5-7-5-7---------------|
B|--------------------------------------9-----------------------------------------------------------------|

G|------------------------------------------------------------------------------------|
D|--4-----4---------------------------------------------------------------------------|
A|----6-7---------------5------------------5------------------5-----------------------|
E|--------------------------------------------------------------------------3--5-7\---|
B|----------1--1-1--3-----3--3-1--1-1--3-----3-1--0--0-0--3-----3--1-0--0-0-----------|

G|-----------------------------------------------------------------------------------------------|
D|-----------------------------------------------------------------------------------------------|
A|---------3--------5-------------3--------------------------------------------------5------3~---|
E|---------------------------------------3-------------3----5-------------3----5-----------------|
B|--1-1-1-----1-3-----3--3-1-1-1----1-3----3-1--0-0--0----0---3-0--0-0--0----0----3----3--3------|

piano break - rest
G|---------------------------------------------------------------------------|
D|---------------------------------------------------------------------------|
A|---------------------------------------------------------------------------|
E|---------------------------------------------------------------------------|
B|---------------------------------------------------------------------------|

  (3:59)                    x2
G|---------------------------|---------------------5-----------------------------------------------|
D|*-------------------------*|-----------------------5---5-------5---------------------------------|
A|---3~--------------5~------|--5-5-5-5-5-5--3--3------3--------------------5-----5------5---------|
E|*----------3~-------------*|------------------------------3-3----3-3--------5--------------------|
B|---------------------------|-----------------------------------------3--3-----3----3-3---3-------|

G|-----------5-----------------------------------------------|
D|-------------5---5-------5---------------------------------|
A|---2-3--3------3--------------------5-----5-----5---5------|
E|--------------------3-3----3-3--------5--------------------|
B|-------------------------------3--3-----3---3-3---3---3----|

G|---------------------------------------------------------------------------|
D|---------------------------------------------------------------------------|
A|---------------------------------------------------------------------------|
E|--------3--3-3--3-3--3-----------------------------------------------------|
B|-1-1--1----------------3-3--3-3--3-3-3-3-3-3-3-----------------------------|

G|---5------------------------------------------------------------------------|
D|---5---------5----5-5--2-2-0------------------------------------------------|
A|-3-3--3---------------------------------------------------------------------|
E|--------3--3----3-3----------0------0------0----0---------------------------|
B|-------------------------------3-3----3-3----3----3~------------------------|


7. Red Giant


Intro (0:00)                            
G|---------------------------------------------------------------------------|
D|---------------------------------------------------------------------------|
A|---------------------------------------------------------------------------|
E|---------------------------------------------------------------------------|
B|---------------------------------------------------------------------------|

  (0:46) octaver on
G|---------------------------------------------------------------------------|
D|---------------------------------------------------------------------------|
A|---------------------------------------------------------------------------|
E|---------------------------------------------------------------7--7-7-7----|
B|--7--7----7--7----7--7----7--7----7--7----7--7----7--7----7--7-------------|

G|------------------------------------------------------------------------------|
D|------------------------------------------------------------------------------|
A|--------------------------------9---------------------------------------------|
E|---------------------------------9-----------------------------------------7\-|
B|--7--7----7--7----7--7----7--7----10----7--7----7--7----7--7----10--10--7-----|

  (1:17)
G|-------------------------------------------------------------------------------------|
D|-------------------------------------------------------------------------------------|
A|-------------------------------------------------------------------------------------|
E|--5--5---5--5---7--7---7--7-------------------------------5--5---5--5---7--7---7--7--|
B|------------------------------7--7---7--7---7--7---7--7------------------------------|

  (1:41)
G|--------------------------------------------------------------------------|
D|--------------------------------------------------------------------------|
A|--------------------------------------------------------------------5-----|
E|-------------------------------------------------------------5-5--7---7---|
B|-7--7----7--7----7--7----7--7----7--7----7--7----7--7---7-7---------------|

G|-----------------------------------------------------------------------------|
D|-----------------------------------------------------------------------------|
A|-----------------------------------------------------9-9---------------------|
E|---------------------------------------------------------7---7-7--7~--7------|
B|-7--7----7--7----7--7~------7----7--7----7--7---7--7--------------------7--7-|

G|-------------------------------------------------------------------------|
D|-------------------------------------------------------------------------|
A|-------------------------------------------------------------------------|
E|----------------------------------------------------------------7--------|
B|-7--7----7--7----7--7----7--7----7--7---7-7-7---7--7----7--7------7--7---|

G|-----------------------------------------------------------------------------------|
D|-----------------------------------------------------------------------------------|
A|-----------------------9--9-----9-----9--9----9-------------9-9-9-9-9------9-------|
E|----------------------------7-7----7-----------------------------------------------|
B|-7-7--7---7--7-7-7---7---------------------7----7--7-7-7-7------------7-7----7-7---|

G|---------------------------------------------------------------------|
D|---------------------------------------------------------------------|
A|---------------------------------------------------------------------|
E|-------7-------------------------------------------------------------|
B|--10--------9\---5~--------------------------------------------------|

  (2:42)
G|---------------------------------------------------------------------|
D|---------------------------------------------------------------------|
A|---------------------------------------------------------------------|
E|--5--5---5--5---7--7---7--7--------------------------7---------------|
B|------------------------------7--7---7--7---7--7---7---9\-5----------|

G|---------------------------------------------------------------------|
D|---------------------------------------------------------------------|
A|---------------------------------------------------------------------|
E|--5--5---5--5---7--7---7--7----------------------------7-------------|
B|------------------------------7--7---7--7---7--7---10-----9\--5------|

  (3:14) p             x2                        x2 ppp
G|---------------------|-------------------------|-----------------------------------|
D|*-------------------*|*-----------------------*|-----------------------------------|
A|---------------------|-------------------------|-----------------------------------|
E|*--7-----10---------*|*---7-----10\-\9--------*|-7--7-7-7--7-7--10--10-10-10-10-10-|
B|-----------------7---|--------------------7----|-----------------------------------|

                                       pp
G|--------------------------------------------------------------------------------------------------|
D|--------------------------------------------------------------------------------------------------|
A|--------------------------------------------------------------------------------------------------|
E|-------------------------------------7-7-77--7-10--10-10--10-10-----------------------------------|
B|--7--7-7--7-7--7-7--77-7-7-77-7-7-7------------------------------7-7-7-7-7-7-7-7-7-7-7-7-7-7-7-7--|

    p                             
G|--------------------------------------------------------------------------------|
D|--------------------------------------------------------------------------------|
A|--------------------------------------------------------------------------------|
E|--7--7-7--7--7-7--10--10-10-10-10-10--------------------------------------------|
B|--------------------------------------7--7-7--7-7--7-7--7-7-7--7-7--7-7-7-------|

   mp                              mf
G|------------------------------------------------------------------------------------|
D|------------------------------------------------------------------------------------|
A|------------------------------------------------------------------------------------|
E|-7-7-7--7-7--7-10--10-10--10-10-----------------------------------------------------|
B|---------------------------------7-7-7-7--7-7--7-7-7--7-7--7-7-7-7-7--7-7--7--------|

  (4:15) f - fuzz/distortion on
G|---------------------------------------------------------------------------|
D|---------------------------------------------------------------------------|
A|---------------------------------------------------------------------------|
E|--7--7-7-7--7-7/--10--10-10-10-10-9----------------------------------------|
B|-------------------------------------7--7-7--7-7-7-7-7--7-7-7--7-7-7--7-7--|

G|---------------------------------------------------------------------------|
D|---------------------------------------------------------------------------|
A|-------------------------------------------------------------------9-7-----|
E|--7--7-7--7-7--7-7/-10--10-10--10-10-9---------------------------------9-5-|
B|----------------------------------------7-7-7-7--7--7-7-7-7--7-7-7---------|

G|------------------------------------------------------------------------------|
D|------------------------------------------------------------------------------|
A|------------------------------------------------------------------------------|
E|--7--7-7-7--7--7/-10--10-10-10-9----------------------------------------------|
B|----------------------------------7--7-7--7-7-7--7-7---7-7-7--7-7-7--7-7------|

G|------------------------------------------------------------------------------|
D|------------------------------------------------------------------------------|
A|------------------------------------------------------7h9-9-9--7--------------|
E|--7--7-7--7-7--7-7/--10--10-10--10-9-----------------------------9-7-5/-------|
B|--------------------------------------7-7-7-7-7-7-7-7-------------------------|

G|---------------------------------------------------------------------------|
D|---------------------------------------------------------------------------|
A|---------------------------------------------------------------------------|
E|--7--7-7-7--7/13\7/-10--10-10-10-10-9--------------------------------------|
B|---------------------------------------7--7-7-7--7-7--7-7-7--7-7-7--7-7----|

G|---------------------------------------------------------------------------|
D|---------------------------------------------------------------------------|
A|---------------------------------------------------------------------------|
E|--7--7-7--7--7/--10--10-10--10-10-9----------------------------------------|
B|-------------------------------------7--7-7--7-7-7-7-7--7-7-7-7--7-7--7-7--|

G|-----------------------------------------------------------------------------|
D|-----------------------------------------------------------------------------|
A|-----------------------------------------------------------------------------|
E|--7--7-7--7--7/--10--10-10-10-10-9-------------------------------------------|
B|------------------------------------7--7-7-7-7-7--7-7--7-7--7-7-7--7-7-------|

                                                                 let ring
G|---------------------------------------------------------------------------|
D|---------------------------------------------------------------------------|
A|---------------------------------------------------------------------------|
E|--7-7-7-7-7-7-7-7-7-7-7-7/-10-10-10-10-10-10-10-10-10-10-10-10-------------|
B|---------------------------------------------------------------10~---------|

  (5:53) rest
G|---------------------------------------------------------------------------|
D|---------------------------------------------------------------------------|
A|---------------------------------------------------------------------------|
E|---------------------------------------------------------------------------|
B|---------------------------------------------------------------------------|


8. The Endless Knot


Intro (0:00)                            
G|---------------------------------------------------------------------------|
D|---------------------------------------------------------------------------|
A|---------------------------------------------------------------------------|
E|---------------------------------------------------------------------------|
B|---------------------------------------------------------------------------|

  (0:17) octaver + fuzz/distortion on
G|----------------------------------------------------------------------------|
D|----------------------------------------------------------------------------|
A|----------------------------------------------------------------------------|
E|-------------------------------1-1-1----------------------------------------|
B|--2--2-2--2--2--2-2--2-2-2--2---------0--0-0-0--0-0--0-0-0--0-0-0--0-0-1-1--|

                                                                        let ring + octaver off
G|---------------------------------------------------------------------------|
D|---------------------------------------------------------------------------|
A|---------------------------------------------------------------------------|
E|-------------------------1-1-1---------------------------------------------|
B|--2-2--2---2-2--2-2-2--2--------0--0-0-0--0-0--0-0-0--0-0-0--0-0-1-1--0~---|

  (0:45)
G|---------------------------------------------------------------------------|
D|---------------------------------------------------------------------------|
A|---------------------------------------------------------------------------|
E|---------------------------------------------------------------------------|
B|-10\-2--2-2-2-2--2--2-2-2-2--2-2-2--10\-2--2-2-2-2--2--2-2-2-2-0--2-1------|

G|---------------------------------------------------------------------------|
D|---------------------------------------------------------------------------|
A|---------------------------------------------------------------------------|
E|--5----------------------------3-1--5-----------------------3-1------------|
B|-----2--2-2-2-2--2--2-2-2-2--2---------2--2-2-2-2--2--2-2-2-----0-5--------|

  (1:06)
G|-------------------------------------------------------------------------------|
D|-----------3---2--------------------------------------------------2---2---2----|
A|--5-------------------------3---------------------------------------5---5---5--|
E|------1------1----5---5-5-5----3---3-3--3-3------------------------------------|
B|---------------------------------------------2---2-2---2-2---2-2---------------|

G|---------------------------------------------------------------------------|
D|---------------------------------------------------------------------------|
A|---------------------------------------------------------------------------|
E|---------------------------------------------------------------------------|
B|--2-2--2---2--2-2--2---2-2--2---2--2-2--2-2-2-2-2/5------------------------|

  (1:36)
G|---------------------------------------------------------------------------|
D|---------------------------------------------------------------------------|
A|--------------------------------------------------------5--5--3-3-2-2-3----|
E|--5--5--5-5-5-5--5--4--4--4-4-4-4--4--3--3--3-3-3-3--5---------------------|
B|---------------------------------------------------------------------------|

G|-----------------------------------------------------------------------------|
D|-----------------------------------------------------------------------------|
A|-----------------------------------------------------------5--5-2---2----3---|
E|-10\-5--5--5-5-5-5--5--4--4--4-4-4-4--4--3--3--3-3-3-3--5---------5---5------|
B|-----------------------------------------------------------------------------|

                                         octaver on
G|---------------------------------------------------------------------------|
D|---------------------------------------------------------------------------|
A|--5---------------10----5--------------------------------------------------|
E|------1---5---3/-----8------1---5---3~-------------------------------------|
B|---------------------------------------------------------------------------|

(2:22) 
    s  s   s  s s  s s  s  s s  s  s s  s s  s s s            x2
G|-------------------------------------------------------------|
D|*-----------------------------------------------------------*|
A|-------------------------------------------------------------|
E|*--------------------------------5-5--6-6--3---1------------*|
B|--2--2---6--6-6--6-6--5--5-5--5--------------3---------------|

   s s s s   s  s s  s s  s s  s s  s  s s  s s  s s s  s  s s  s  s s  s s  s  s s  s s  s  s s  s s  s s s
G|-----------------------------------------------------------------------------------------------------------|
D|-----------------------------------------------------------------------------------------------------------|
A|-----------------------------------------------------------------------------------------------------------|
E|-------------------------------------5-5--6-6--3---1---------------------------------------5-5--6-6--3---1-|
B|-2-2-2-2---6--6-6--6-6--6-5--5-5--5--------------3----2--2-2--2--6-6--6-6--6--5-5--5-5--5--------------3---|

  octaver off
G|---------------------------------------------------------------------------|
D|--------------------------5------------------------------------------------|
A|--5--5--5-5-5-5--5--5--5----2----------------------------------------------|
E|-------------------------------5----5-5-5-5--3--3--3-3-3--3----------------|
B|---------------------------------------------------------------------------|

G|---------------------------------------------------------------------------|
D|---------------------------------------------------------------------------|
A|--5--5--5-5-5-5--5--5--5------2--------------------------------------------|
E|---------------------------------5--5--5-5-5-5--3----3---3--5--------------|
B|--------------------------3-5--------------------------3-------------------|

  (3:00)
G|---------------------------------------------------------------------------|
D|--------------------------3------------------------------------------------|
A|---------------------------------------------------------------------------|
E|--2-2--2-2--2-2--2--2--2----2-2--1-1--1-1--1-1-1--1-1--1---1-1-------------|
B|---------------------------------------------------------------------------|

G|---------------------------------------------------------------------------|
D|-------------6-------------------------------------------------------------|
A|---------9-7---9\----------------------------------------------------------|
E|--2--2/9----------2-2--2-2--2-2--1-1--1-1--1-1-3~--------------------------|
B|---------------------------------------------------------------------------|

  (3:17)
G|------------------------------------------------------------------------------|
D|------------------------------------------------------------------------------|
A|---------------------------------------------------------------2-3------------|
E|--5~----1~--1------5--5-5-5--5-5--5--5-5-5--5--5-5-5--5-5--3-5-----1~---------|
B|---------------5--------------------------------------------------------3--5--|

G|-----------------------------------------------------------------------------------------------------------|
D|-----------------------------------------------------------------------------------------------------------|
A|---------------------------------------------2-3-----------------------------------------------------------|
E|-5--5-5-5--5-5--5--5-5-5--5--5-5-5--5-5--3-5-----1--1-1-1--1-1--1--1-1--1-1--1--1-1-1--1-1-----------------|
B|-------------------------------------------------------------------------------------------5--5-5-5--5-5-5-|

G|-------------------------------------------------------------------------------------------------------|
D|-------------------------------------------------------------------------------------------------------|
A|----------------------------------------------2-3------------------------------------------------------|
E|--5--5-5-5--5-5--5--5-5-5--5--5-5-5--5-5--3-5-----1--1-1-1--1-1--1--1-1--1-1--5-5-5-5-5-5-3-3-3-3-3-3--|
B|-------------------------------------------------------------------------------------------------------|

  (3:58) rest
G|---------------------------------------------------------------------------|
D|---------------------------------------------------------------------------|
A|---------------------------------------------------------------------------|
E|---------------------------------------------------------------------------|
B|---------------------------------------------------------------------------|

  (4:33)
G|------------------------------------------------------------------------------------------|
D|------------------------------------------------------------------------------------------|
A|--5--5--5---3--3--3-----------------------5--5--5---3--3--3-------------------------------|
E|----------------------1--1--1---3--3--3-----------------------5--5--5---3--3--3--3-3-3-3--|
B|------------------------------------------------------------------------------------------|

G|---------------------------------------------------------------------------------------------------|
D|---------------------------------------------------------------------------------------------------|
A|--5-5-5-5-5-5-5-5-5-5-5-5-3-3-3-3-3-3-3-3-3-3-3-3--------------------------------------------------|
E|--------------------------------------------------1-1-1-1-1-1-1-1-1-1-1-1-3-3-3-3-3-3-3-3-3-3-3-3--|
B|---------------------------------------------------------------------------------------------------|

G|---------------------------------------------------------------------------------------------------|
D|---------------------------------------------------------------------------------------------------|
A|--5-5-5-5-5-5-5-5-5-5-5-5-3-3-3-3-3-3-3-3-3-3-3-3--------------------------------------------------|
E|--------------------------------------------------5-5-5-5-5-5-5-5-5-5-5-5-3-3-3-3-3-3-3-3-3-3-3-3--|
B|---------------------------------------------------------------------------------------------------|

  (5:14)
G|---------------------------------------------------------------------------|
D|---------------------------------------------------------------------------|
A|---------------------------------------------------------------------------|
E|---------------------1--1--5--5--5--5--5--7--3--3--------------------------|
B|--2--2--2---2--2--2--------------------------------------------------------|

G|---------------------------------------------------------------------------|
D|---------------------------------------------------------------------------|
A|---------------------------------------------------------------------------|
E|---------------------1--1--5--5--5--5--5--5--------------------------------|
B|--2--2--2---2--2--2--------------------------------------------------------|


  (5:30) Outro - rest
G|---------------------------------------------------------------------------|
D|---------------------------------------------------------------------------|
A|---------------------------------------------------------------------------|
E|---------------------------------------------------------------------------|
B|---------------------------------------------------------------------------|


9. Bound By Gravity


 Intro (0:00)                            
G|---------------------------------------------------------------------------|
D|---------------------------------------------------------------------------|
A|---------------------------------------------------------------------------|
E|---------------------------------------------------------------------------|
B|---------------------------------------------------------------------------|

  (1:07)
G|---------------------------------------------------------------------------|
D|---------------------------------------------------------------------------|
A|---------7---6--------------6--7------------7---6--------------6--7--------|
E|--5--------------5----------------4--5--------------5----------------4-----|
B|---------------------5----------------------------------5------------------|

G|------------------------------------------------8--------------------------|
D|---------------------------------------------------------------------------|
A|---------7---6--------------6--7------------7-----------7------6--7--------|
E|--5--------------5----------------4--5--------------5----------------4-----|
B|---------------------5-----------------------------------------------------|

G|---------------------------------------------------------------------------|
D|---------------------------------------------------------------------------|
A|---------7---6------------------------------7------------------------------|
E|--5--------------5----------------4--5--------------5----------5--2--4-----|
B|---------------------5------3--5----------------4-------5------------------|

  (3:07)
G|------------------------------------------------------------------------------|
D|------------------------------------------------------------------------------|
A|---------------------------------------------------------------------7--------|
E|--0---0---0--0---0-0---0--0---0---0--0---0---0--0---0---0-0---0--0-------3----|
B|------------------------------------------------------------------------------|

G|------------------------------------------------------------------------------|
D|------------------------------------------------------------------------------|
A|------------------------------------------------------------------------------|
E|--5---5---5--5---5-5---5--5---5---5--5---5---5--5---5---5-5---5--5---5--5--5\-|
B|------------------------------------------------------------------------------|

G|------------------------------------------------------------------------------|
D|------------------------------------------------------------------------------|
A|------------------------------------------------------------------------------|
E|--2---2---2--2---2-2---2--2---2---2--2---2---2--2---2---2-2---2--2---4--------|
B|-------------------------------------------------------------------------0----|

G|-------------------------------------------------------------------------------|
D|-------------------------------------------------------------------------------|
A|--------------------------------------------------------------------2h4--------|
E|---------------------------------------------------------------------------4---|
B|--2---2---2--2---2-2---2--2---2---2--2---2---2--2---2---2-2---2--2------2------|

  (3:49)
G|---------------------------------------------------------------------------|
D|---------------------------------------------------------------------------|
A|---------------------------------------------------------------------------|
E|--5--5--5-5---5--5-5--5--5--5--9--9--9----9---7--7-------------------------|
B|----------------------------------------------------7--5--5----------------|

G|---------------------------------------------------------------------------|
D|---------------------------------------------------------------------------|
A|------------------4--4--2h4--4-4--4--4--4----------------------------------|
E|--2--2--2-----2----------------------------------------2--4-4--------------|
B|---------------------------------------------2---2--4----------------------|

G|---------------------------------------------------------------------------|
D|---------------------------------------------------------------------------|
A|----------------------------------------------------5h7--------------------|
E|--5--5--5-----5--5-5--5--5--5--9--9--9----9--------------------------------|
B|----------------------------------------------5--5-------5--5--------------|

G|---------------------------------------------------------------------------|
D|---------------------------------------------------------------------------|
A|------------------4--4--2h4--4-4--4--4--4----------------------------------|
E|--2--2--2-----2-----------------------------------------2--4---------------|
B|--------------------------------------------14\----2-4---------------------|

  (4:32)
G|---------------------------------------------------------------------------|
D|---------------------------------------------------------------------------|
A|---------------------------------------------------------------------------|
E|--5--5--5-5---5--5-5--5--5--7--9--9--9--9---12\11--7--7----7----4----------|
B|---------------------------------------------------------7---5-------------|

G|-----------------------------------------------------------------------------|
D|-----------------------------------------------------------------------------|
A|--------------------4--------------------------------------------------------|
E|--2--2--2--2----2--------------------------------------------4---------------|
B|----------------------2---2-2--2--2---2--2--2--2---2--2-4--5-----------------|

G|---------------------------------------------------------------------------|
D|---------------------------------------------------------------------------|
A|--------------------------------------------------------7------------------|
E|--5--5--5-----5--5-5--5--5--7--9--9--9------9------------------------------|
B|------------------------------------------------5--5--5----5--5------------|

G|---------------------------------------------------------------------------|
D|---------------------------------------------------------------------------|
A|---------------------------------------------------------------------------|
E|--2--2--2-----7h9-------------------------------------4--------------------|
B|-------------------2--2--2-2--2--2---2--2--2-----2--2---5~-----------------|

  (5:15) piano break - rest
G|---------------------------------------------------------------------------|
D|---------------------------------------------------------------------------|
A|---------------------------------------------------------------------------|
E|---------------------------------------------------------------------------|
B|---------------------------------------------------------------------------|

  (5:56)                  mf
G|-----------------------------------------------------------------------------------------|
D|-----------------------------------------------------------------------------------------|
A|-----------------------------------------------------------------------------------------|
E|------------7--4~----7--9-9-9-9-9-9-9-9-9-9-9-9-7-7-4-4-5-5-5-5-5-5-5-5-5-5-5-5-5-5-5-5--|
B|--5~-----7-------------------------------------------------------------------------------|

  (6:17) f
G|-------------------------------------------------------------------------------------------------------|
D|-------------------------------------------------------------------------------------------------------|
A|-------------------------------------------------------------------------------------------------------|
E|----------------------------------------------------4-4-4-4--4-4--4-4-4--4-4-4-4-4-4--4-4--4-4-4--4-4--|
B|-5-5-5-5--5-5--5-5-5--5-5-5-5-5-5--5-5--5-5-5--5-5-----------------------------------------------------|

G|-------------------------------------------------------------------------------------------------------|
D|-------------------------------------------------------------------------------------------------------|
A|-------------------------------------------------------------------------------------------------------|
E|-5-5-5-5--5-5--5-5-5--5-5-5-5-5-5--5-5--5-5-5--5-5--9-9-9-9--9-9--9-9-9--9-9-9-9-9-9--9-9--9-9-9--9-9--|
B|-------------------------------------------------------------------------------------------------------|

G|-------------------------------------------------------------------------------------------------------|
D|-------------------------------------------------------------------------------------------------------|
A|-------------------------------------------------------------------------------------------------------|
E|----------------------------------------------------5-5-5-5--5-5--5-5-5--5-5-5-5-5-5--5-5--5-5-5--5-5--|
B|-5-5-5-5--5-5--5-5-5--5-5-5-5-5-5--5-5--5-5-5--5-5-----------------------------------------------------|

G|-----------------------------------------------------------------------------------------------------------|
D|-----------------------------------------------------------------------------------------------------------|
A|-----------------------------------------------------------------------------------------------------------|
E|-9-9-9-9--9-9--9-9-9--9-9-9-9-9-9--9-9--9-9-9--9-9--9-9-9-9--9-9--9-9-9--9-9-9-9-9-9--9-9--9-9-9-9-9-9-9-9-|
B|-----------------------------------------------------------------------------------------------------------|

  (6:55)
G|-------------------------------------------------------------------------------------------------------|
D|-------------------------------------------------------------------------------------------------------|
A|-------7------------------------7--7----7--------------------------------------------------------------|
E|----------------------------------------------------4-4-4-4--4-4--4-4-4--4-4-4-4-4-4--4-4--4-4-4--4-4--|
B|-5-5-5----5-5--5-5-5--5-5-5-5-5------5----5-5--5-5-----------------------------------------------------|

G|-------------------------------------------------------------------------------------------------------|
D|-------------------------------------------------------------------------------------------------------|
A|-------------------------------------------------------------------------------------------------------|
E|-5-5-5-5--5-5--5-5-5--5-5-5-5-5-5--5-5--5-5-5--5-5--9-9-9-9--9-9--9-9-9--9-9-9-9-9-9--9-9--9-9-9--9-9--|
B|-------------------------------------------------------------------------------------------------------|

G|-------------------------------------------------------------------------------------------------------|
D|-------------------------------------------------------------------------------------------------------|
A|-------9------------------------9--9----9--------------------------------------------------------------|
E|----------------------------------------------------5-5-5-5--5-5--5-5-5--5-5-5-5-5-5--5-5--5-5-5--5-5--|
B|-7-7-7----7-7--7-7-7--7-7-7-7-7------7----7-7--7-7-----------------------------------------------------|

G|-------------------------------------------------------------------------------------------------------|
D|-------------------------------------------------------------------------------------------------------|
A|-------------------------------------------------------------------------------------------------------|
E|-------------------------------------------------------------------------------------------------------|
B|-5-5-5-5--5-5--5-5-5--5-5-5-5-5-5--5-5--5-5-5--5-5--5-5-5-5--5-5--5-5-5--5-5-5-5-5-5--5-5--5-5-5--5-5--|

  (7:32)
G|-------------------------------------------------------------------------------------------------------|
D|-------------------------------------------------------------------------------------------------------|
A|-------------------------------------------------------------------------------------------------------|
E|----------------------------------------------------4-4-4-4--4-4--4-4-4--4-4-4-4-4-4--4-4--4-4-4--7-7--|
B|-5-5-5-5--5-5--5-5-5--5-5-5-5-5-5--5-5--5-5-5--7-7-----------------------------------------------------|

G|-------------------------------------------------------------------------------------------------------|
D|-------------------------------------------------------------------------------------------------------|
A|-------------------------------------------------------------------------------------------------------|
E|-5-5-5-5--5-5--5-5-5--5-5-5-5-5-5--5-5--5-5-5--7-7--9-9-9-9--9-9--9-9-9--9-9-9-9-9-9--9-9--------------|
B|-------------------------------------------------------------------------------------------9-9-9--5-5--|

G|-------------------------------------------------------------------------------------------------------|
D|-------------------------------------------------------------------------------------------------------|
A|-------------------------------------------------------------------------------------------------------|
E|-----------------------------------------------3-3--5-5-5-5--5-5--5-5-5--5-5-5-5-5-5--5-5--5-5-5--5-5--|
B|-7-7-7-7--7-7--7-7-7--7-7-7-7-7-7--7-7--7-7-7----------------------------------------------------------|

                                                                            x4
G|---------------------------------------------------------------------------|
D|*-------------------------------------------------------------------------*|
A|---------------------------------------------------------------------------|
E|*--0-0-0-0--0-0--0-0-0--0-0-0-0-0-0--0-0--0-0-0--0-0----------------------*|
B|---------------------------------------------------------------------------|

  (8:20) rest - Outro/noise from affinity.exe
G|---------------------------------------------------------------------------|
D|---------------------------------------------------------------------------|
A|---------------------------------------------------------------------------|
E|---------------------------------------------------------------------------|
B|---------------------------------------------------------------------------|



************************************

| x   Dead note
| g   Grace note
| (n) Ghost note
| h   Hammer-on
| p   Pull-off
| r   Release
| >   Accented note
| t   Tapping
| b   Bend
| br  Bend release
| pb  Pre-bend
| pbr Pre-bend release
| /   Slide up
| \   Slide down
| ~   Vibrato
| s   Slap
| P   Pop
| PM  Palm mute
| TR  Trill
| N   Tremolo
| <>  Harmonic

 Above tab:

| ppp piano pianissimo
| pp  pianissimo
| p   piano
| mp  mezzo piano
| mf  mezzo forte
| f   forte
| ff  fortissimo
| fff forte fortissimo


************************************

This is a compilation of every bass tab I've done from Haken's Affinity album. You can find the tabs for the
individual songs on my Ultimate-Guitar profile or by using the search bar. Enjoy! Feel free to improve the
individual tabs as much as you like, I'll try to keep this compilation up to date with the latest improvements
as much as possible.

            
            
Suggest correction
Creating personal tab
Creating personal tab
You can edit any tab online and save it as your Personal.

You can edit, replace or remove any tab part or add personal notes – all changes will be seen only by you.

Personal tabs can be accessed anytime from any device, even offline.
Learn more »
Give kudos to tab author, rate the tab!
1 2 3 4 5
comments
print report bad tab
1 comment total.
0 reply
max.brayson.96 10 Jul 23, 2016 02:21 AM

Pretty sure both The Endless Knot and Earthrise are in Drop A, and there are a few wrong notes in there that I can see, but great effort overall!

guest
You may want to rate the tab now too:
select rating
Wanna post a correction for this tab? Suggest correction