Oops, an error
Loading. Please wait.

Bound By Gravity bass

by Haken
418 views 1 this week
no commentswrite comment
1 2 3 4 5
3 more votes to show rating
add to favorites
×
Save as Personal and add changes to this tab that will be seen only by you. Learn more ›
×
You can save this tab as Personal to edit and correct it or add notes. All changes will be seen only by you. Learn more »
launch autoscroll
font size
0
reset
guitar tuner
edit
Autoscroll
slow
fast
+/-
esc
set tempo
stop
Author
-------------------------------------------------------------------------------
                             Bound By Gravity - Haken
-------------------------------------------------------------------------------
Tabbed by: flame9800 

Tuning: 5 string Standard Tuning (BEADG)

 Intro (0:00)                            
G|---------------------------------------------------------------------------|
D|---------------------------------------------------------------------------|
A|---------------------------------------------------------------------------|
E|---------------------------------------------------------------------------|
B|---------------------------------------------------------------------------|

  (1:07)
G|---------------------------------------------------------------------------|
D|---------------------------------------------------------------------------|
A|---------7---6--------------6--7------------7---6--------------6--7--------|
E|--5--------------5----------------4--5--------------5----------------4-----|
B|---------------------5----------------------------------5------------------|

G|------------------------------------------------8--------------------------|
D|---------------------------------------------------------------------------|
A|---------7---6--------------6--7------------7-----------7------6--7--------|
E|--5--------------5----------------4--5--------------5----------------4-----|
B|---------------------5-----------------------------------------------------|

G|---------------------------------------------------------------------------|
D|---------------------------------------------------------------------------|
A|---------7---6------------------------------7------------------------------|
E|--5--------------5----------------4--5--------------5----------5--2--4-----|
B|---------------------5------3--5----------------4-------5------------------|

  (3:07)
G|------------------------------------------------------------------------------|
D|------------------------------------------------------------------------------|
A|---------------------------------------------------------------------7--------|
E|--0---0---0--0---0-0---0--0---0---0--0---0---0--0---0---0-0---0--0-------3----|
B|------------------------------------------------------------------------------|

G|------------------------------------------------------------------------------|
D|------------------------------------------------------------------------------|
A|------------------------------------------------------------------------------|
E|--5---5---5--5---5-5---5--5---5---5--5---5---5--5---5---5-5---5--5---5--5--5\-|
B|------------------------------------------------------------------------------|

G|------------------------------------------------------------------------------|
D|------------------------------------------------------------------------------|
A|------------------------------------------------------------------------------|
E|--2---2---2--2---2-2---2--2---2---2--2---2---2--2---2---2-2---2--2---4--------|
B|-------------------------------------------------------------------------0----|

G|-------------------------------------------------------------------------------|
D|-------------------------------------------------------------------------------|
A|--------------------------------------------------------------------2h4--------|
E|---------------------------------------------------------------------------4---|
B|--2---2---2--2---2-2---2--2---2---2--2---2---2--2---2---2-2---2--2------2------|

  (3:49)
G|---------------------------------------------------------------------------|
D|---------------------------------------------------------------------------|
A|---------------------------------------------------------------------------|
E|--5--5--5-5---5--5-5--5--5--5--9--9--9----9---7--7-------------------------|
B|----------------------------------------------------7--5--5----------------|

G|---------------------------------------------------------------------------|
D|---------------------------------------------------------------------------|
A|------------------4--4--2h4--4-4--4--4--4----------------------------------|
E|--2--2--2-----2----------------------------------------2--4-4--------------|
B|---------------------------------------------2---2--4----------------------|

G|---------------------------------------------------------------------------|
D|---------------------------------------------------------------------------|
A|----------------------------------------------------5h7--------------------|
E|--5--5--5-----5--5-5--5--5--5--9--9--9----9--------------------------------|
B|----------------------------------------------5--5-------5--5--------------|

G|---------------------------------------------------------------------------|
D|---------------------------------------------------------------------------|
A|------------------4--4--2h4--4-4--4--4--4----------------------------------|
E|--2--2--2-----2-----------------------------------------2--4---------------|
B|--------------------------------------------14\----2-4---------------------|

  (4:32)
G|---------------------------------------------------------------------------|
D|---------------------------------------------------------------------------|
A|---------------------------------------------------------------------------|
E|--5--5--5-5---5--5-5--5--5--7--9--9--9--9---12\11--7--7----7----4----------|
B|---------------------------------------------------------7---5-------------|

G|-----------------------------------------------------------------------------|
D|-----------------------------------------------------------------------------|
A|--------------------4--------------------------------------------------------|
E|--2--2--2--2----2--------------------------------------------4---------------|
B|----------------------2---2-2--2--2---2--2--2--2---2--2-4--5-----------------|

G|---------------------------------------------------------------------------|
D|---------------------------------------------------------------------------|
A|--------------------------------------------------------7------------------|
E|--5--5--5-----5--5-5--5--5--7--9--9--9------9------------------------------|
B|------------------------------------------------5--5--5----5--5------------|

G|---------------------------------------------------------------------------|
D|---------------------------------------------------------------------------|
A|---------------------------------------------------------------------------|
E|--2--2--2-----7h9-------------------------------------4--------------------|
B|-------------------2--2--2-2--2--2---2--2--2-----2--2---5~-----------------|

  (5:15) piano break - rest
G|---------------------------------------------------------------------------|
D|---------------------------------------------------------------------------|
A|---------------------------------------------------------------------------|
E|---------------------------------------------------------------------------|
B|---------------------------------------------------------------------------|

  (5:56)                  mf
G|-----------------------------------------------------------------------------------------|
D|-----------------------------------------------------------------------------------------|
A|-----------------------------------------------------------------------------------------|
E|------------7--4~----7--9-9-9-9-9-9-9-9-9-9-9-9-7-7-4-4-5-5-5-5-5-5-5-5-5-5-5-5-5-5-5-5--|
B|--5~-----7-------------------------------------------------------------------------------|

  (6:17) f
G|-------------------------------------------------------------------------------------------------------|
D|-------------------------------------------------------------------------------------------------------|
A|-------------------------------------------------------------------------------------------------------|
E|----------------------------------------------------4-4-4-4--4-4--4-4-4--4-4-4-4-4-4--4-4--4-4-4--4-4--|
B|-5-5-5-5--5-5--5-5-5--5-5-5-5-5-5--5-5--5-5-5--5-5-----------------------------------------------------|

G|-------------------------------------------------------------------------------------------------------|
D|-------------------------------------------------------------------------------------------------------|
A|-------------------------------------------------------------------------------------------------------|
E|-5-5-5-5--5-5--5-5-5--5-5-5-5-5-5--5-5--5-5-5--5-5--9-9-9-9--9-9--9-9-9--9-9-9-9-9-9--9-9--9-9-9--9-9--|
B|-------------------------------------------------------------------------------------------------------|

G|-------------------------------------------------------------------------------------------------------|
D|-------------------------------------------------------------------------------------------------------|
A|-------------------------------------------------------------------------------------------------------|
E|----------------------------------------------------5-5-5-5--5-5--5-5-5--5-5-5-5-5-5--5-5--5-5-5--5-5--|
B|-5-5-5-5--5-5--5-5-5--5-5-5-5-5-5--5-5--5-5-5--5-5-----------------------------------------------------|

G|-----------------------------------------------------------------------------------------------------------|
D|-----------------------------------------------------------------------------------------------------------|
A|-----------------------------------------------------------------------------------------------------------|
E|-9-9-9-9--9-9--9-9-9--9-9-9-9-9-9--9-9--9-9-9--9-9--9-9-9-9--9-9--9-9-9--9-9-9-9-9-9--9-9--9-9-9-9-9-9-9-9-|
B|-----------------------------------------------------------------------------------------------------------|

  (6:55)
G|-------------------------------------------------------------------------------------------------------|
D|-------------------------------------------------------------------------------------------------------|
A|-------7------------------------7--7----7--------------------------------------------------------------|
E|----------------------------------------------------4-4-4-4--4-4--4-4-4--4-4-4-4-4-4--4-4--4-4-4--4-4--|
B|-5-5-5----5-5--5-5-5--5-5-5-5-5------5----5-5--5-5-----------------------------------------------------|

G|-------------------------------------------------------------------------------------------------------|
D|-------------------------------------------------------------------------------------------------------|
A|-------------------------------------------------------------------------------------------------------|
E|-5-5-5-5--5-5--5-5-5--5-5-5-5-5-5--5-5--5-5-5--5-5--9-9-9-9--9-9--9-9-9--9-9-9-9-9-9--9-9--9-9-9--9-9--|
B|-------------------------------------------------------------------------------------------------------|

G|-------------------------------------------------------------------------------------------------------|
D|-------------------------------------------------------------------------------------------------------|
A|-------9------------------------9--9----9--------------------------------------------------------------|
E|----------------------------------------------------5-5-5-5--5-5--5-5-5--5-5-5-5-5-5--5-5--5-5-5--5-5--|
B|-7-7-7----7-7--7-7-7--7-7-7-7-7------7----7-7--7-7-----------------------------------------------------|

G|-------------------------------------------------------------------------------------------------------|
D|-------------------------------------------------------------------------------------------------------|
A|-------------------------------------------------------------------------------------------------------|
E|-------------------------------------------------------------------------------------------------------|
B|-5-5-5-5--5-5--5-5-5--5-5-5-5-5-5--5-5--5-5-5--5-5--5-5-5-5--5-5--5-5-5--5-5-5-5-5-5--5-5--5-5-5--5-5--|

  (7:32)
G|-------------------------------------------------------------------------------------------------------|
D|-------------------------------------------------------------------------------------------------------|
A|-------------------------------------------------------------------------------------------------------|
E|----------------------------------------------------4-4-4-4--4-4--4-4-4--4-4-4-4-4-4--4-4--4-4-4--7-7--|
B|-5-5-5-5--5-5--5-5-5--5-5-5-5-5-5--5-5--5-5-5--7-7-----------------------------------------------------|

G|-------------------------------------------------------------------------------------------------------|
D|-------------------------------------------------------------------------------------------------------|
A|-------------------------------------------------------------------------------------------------------|
E|-5-5-5-5--5-5--5-5-5--5-5-5-5-5-5--5-5--5-5-5--7-7--9-9-9-9--9-9--9-9-9--9-9-9-9-9-9--9-9--------------|
B|-------------------------------------------------------------------------------------------9-9-9--5-5--|

G|-------------------------------------------------------------------------------------------------------|
D|-------------------------------------------------------------------------------------------------------|
A|-------------------------------------------------------------------------------------------------------|
E|-----------------------------------------------3-3--5-5-5-5--5-5--5-5-5--5-5-5-5-5-5--5-5--5-5-5--5-5--|
B|-7-7-7-7--7-7--7-7-7--7-7-7-7-7-7--7-7--7-7-7----------------------------------------------------------|

                                                                            x4
G|---------------------------------------------------------------------------|
D|*-------------------------------------------------------------------------*|
A|---------------------------------------------------------------------------|
E|*--0-0-0-0--0-0--0-0-0--0-0-0-0-0-0--0-0--0-0-0--0-0----------------------*|
B|---------------------------------------------------------------------------|

  (8:20) rest - Outro/noise from affinity.exe
G|---------------------------------------------------------------------------|
D|---------------------------------------------------------------------------|
A|---------------------------------------------------------------------------|
E|---------------------------------------------------------------------------|
B|---------------------------------------------------------------------------|


************************************

| x   Dead note
| g   Grace note
| (n) Ghost note
| h   Hammer-on
| p   Pull-off
| r   Release
| >   Accented note
| t   Tapping
| b   Bend
| br  Bend release
| pb  Pre-bend
| pbr Pre-bend release
| /   Slide up
| \   Slide down
| ~   Vibrato
| s   Slap
| P   Pop
| PM  Palm mute
| TR  Trill
| N   Tremolo

 Above tab:

| ppp piano pianissimo
| pp  pianissimo
| p   piano
| mp  mezzo piano
| mf  mezzo forte
| f   forte
| ff  fortissimo
| fff forte fortissimo

************************************

Quick transcription of Conner Green's bassline for Haken's Bound By Gravity without detailed explanations
for the rhythm. Definetly isn't perfect. Let me know what you think in the comments. Feel free to improve
the tab as much as you like.

            
            
Suggest correction
Creating personal tab
Creating personal tab
You can edit any tab online and save it as your Personal.

You can edit, replace or remove any tab part or add personal notes – all changes will be seen only by you.

Personal tabs can be accessed anytime from any device, even offline.
Learn more »
Give kudos to tab author, rate the tab!
1 2 3 4 5
comments
print report bad tab
guest
You may want to rate the tab now too:
select rating
Wanna post a correction for this tab? Suggest correction