Oops, an error
Loading. Please wait.

Day You Said Goodnight tab

version 2
version 2

Interactive

by Hale
5,490 views 27 this week
1 commentread comment
1 2 3 4 5
x 4
add to favorites
×
Save as Personal and add changes to this tab that will be seen only by you. Learn more ›
×
You can save this tab as Personal to edit and correct it or add notes. All changes will be seen only by you. Learn more »
launch autoscroll
font size
0
reset
how to read this tab
guitar tuner
edit
Autoscroll
slow
fast
+/-
esc
set tempo
stop
Author
TITLE: The Day You Said Goodnight
ARTIST: Hale(ASTIG)
TABBED: seatwork_guitarist (pm nyo rin me s ym)
Stefan_u1@yahoo.com add me up s friendster tnx!!!

STANDARD TUNING:EADGBe

Intro: E5-A (2X)(USE CHORUS OR NORMAL)

     E5           A                   
e----7-----------0--------|
B----7-----------0--------|
G----9----8-9----6--------|
D----9-----------7--------|
A----7-----------7--------|
E----------------5--------|
(MATAGAL ANG STRUM S E)

    C#m          B 
e----0-----------0--------|
B----0-----------0--------|
G----0-----------0--------|
D----11----------9--------|
A----11----------9--------|
E----9-----------7--------|


Verse:(DO THE CHORDS ABOVE) 

        E		
Take me as you are
	A
Push me off the road
	C#m
The sadness
   B		     A		
I need this time to be with you
	     E	
I'm freezing in the sun
	    A 
I'm burning in the rain
    C#m 	
The silence
	B		A		
I'm screaming, calling out your name


Refrain:
    C#m          B 
e----0-----------0--------|
B----0-----------0--------|
G----0-----------0--------|
D----11----------9--------|
A----11----------9--------|
E----9-----------7--------|

    
     A           B
e----0-----------0--------|
B----0-----------0--------|
G----0-----------0--------|
D----7-----------9--------|
A----7-----------9--------|
E----5-----------7--------|

The lead to this 

     C#m           B            A            B
e-------------------0----------------0---------0------|
B-----------------------0----------0---------------0--|
G---9-8---------------8----------6---------------8----|
D-------9---------9--------------------------9--------|
A-----------------------------------------------------|
E-------------------------------5---------------------|

      C#m		B		 		
And I do reside in your light here
	     A			B	
Put out the fire with me and find
Yeah, you'll lose the side of your circles
That's what I'll do if we say goodbye
 

Chorus: (LIGHT DISTORTION)
   E		     B	
To be is all I gotta be
		F#m
And all that I see
		A
And all that I need is time
    E		        B	
To me the life you gave me
			C#m-A
The day you said goodnight

REPEAT INTRO 

Verse: 
The calmness in your face
That I see through the night
The warmth of your, your light is pressing unto us

You didn't ask me why
I never would have known 
Oblivion is falling down


Repeat Refrain
Repeat Chorus


Bridge: 
C#m		       	B		 A	    			
   If you could only know me like your prayers at night
C#m		       	B	    A	    	   B pause
   Then everything between to you and me will be all right


Repeat Chorus 
   E		     B	
To be is all I gotta be
		F#m
And all that I see
		A
And all that I need is time

(DO THIS WHEN YOU HEAR NEED)
e---------------|
B--10-9---------|
G-------11--9---|
D---------------|
A---------------|
E---------------|

    E		        B	
To me the life you gave me
			C#m-A-
The day you said goodnight

(DO THIS AFTER WHEN YOU HEAR ME)
e---------------|
B---------------|
G-------(7)-----|
D----(7)--------|
A---------(7)---|
E---------------|harmonics

(use chords here E- B- C#m- A the lead to this)	       
e---11-12-11-12-11----------|
B-----------------12--------|
G---------------------------|
D---------------------------|
A---------------------------|
E---------------------------|

E	       B
She's already taken,
F#m
She's already taken
               A
She's already taken me

She's already taken,
She's already taken,
                  C#m-A-
She's already taken me

     E           B
e-----------------------|
B----9-10-9------4-5-4--|
G----9-----------4------|
D----9-----------4------|
A-----------------------|
E-----------------------|

		           A	 
The day you said goodnight


\m/rock on!!!

            
            
Suggest correction
Creating personal tab
Creating personal tab
You can edit any tab online and save it as your Personal.

You can edit, replace or remove any tab part or add personal notes – all changes will be seen only by you.

Personal tabs can be accessed anytime from any device, even offline.
Learn more »
comments
print report bad tab
1 comment total.
0 reply
zeatwork 155 Aug 25, 2005 08:00 PM

TITLE: The Day You Said Goodnight
ARTIST: Hale(ASTIG)
TABBED: seatwork_guitarist (pm nyo rin me s ym)
Stefan_u1@yahoo.com add me up s friendster tnx!!!

STANDARD TUNING:EADGBe

Intro: E5-A (USE CHORUS OR NORMAL)

E5 A
e------0------0-----------0--------|
B-----0-------0-----------0--------|
G----9--------9----8-9----6--------|
D---9---------9-----------7--------|
A--7----------7--------------------|
E----------------------------------|
(MATAGAL ANG STRUM S E)

C#m B
e----0-----------0--------|
B----0-----------0--------|
G----6-----------4--------|
D----6-----------4--------|
A----4-----------2--------|
E----0-----------0--------|


Verse:(DO THE CHORDS ABOVE)

E
Take me as you are
A
Push me off the road
C#m
The sadness
B A
I need this time to be with you
E
I'm freezing in the sun
A
I'm burning in the rain
C#m
The silence
B A
I'm screaming, calling out your name


Refrain:The lead to this
C#m A
e----0-----------------0---|
B-----4------------2-------|
G------4-------------4-----|
D--------------------------|
A---4-------------0--------|
E--------------------------|


F#m B
e-------0---------0--------|
B------0-----------4-------|
G-----2-------------4------|
D--------------------------|
A----------------2---------|
E----2---------------------|

C#m A
And I do reside in your light here
F#m Bm
Put out the fire with me and find
Yeah, you'll lose the side of your circles
That's what I'll do if we say goodbye


Chorus: (LIGHT DISTORTION)
E B
To be is all I gotta be
F#m
And all that I see
A
And all that I need is time
E B
To me the life you gave me
F#m-A
The day you said goodnight

chorus(THIS ON LEAD)
E B F#m A
e------------ --0-0------ -0------0--
B------------ --0-0------ -0------0--
G----8/9-----(3X) --8-9------ -12-----9--
D----8/9----- --9-9------ -12-----7--
A----6/7----- --9-9------ -9---------
E------------ --7-7------ -----------

REPEAT INTRO

Verse:
The calmness in your face
That I see through the night
The warmth of your, your light is pressing unto us

You didn't ask me why
I never would have known
Oblivion is falling down

Repeat Refrain
Repeat Chorus
*After A
e----0---------|
B-----0--------|
G---4----------|
D--------------|
A--------------|
E--------------|

Bridge:
C#m B A
If you could only know me like your prayers at night
*do this after at night
e---------------|
B----10-9-10-12-|(2x)
G---9-----------|
D---------------|
A---------------|
E---------------|


C#m B A B pause
Then everything between to you and me will be all right


Repeat Chorus
E B
To be is all I gotta be
F#m
And all that I see
A
And all that I need is time

(DO THIS WHEN YOU HEAR NEED)
e-------------------|
B--9h10-------------|
G-------12-10-999---|
D-------------------|
A-------------------|
E-------------------|

E B
To me the life you gave me
F#m-A-
The day you said goodnight

(ACOUSTIC AFTER BRIDGE CHORUS)
e-0---------------------0------0--|
B-0-(9)-(12)------(12)--0------0--|
G-9-----------8-9-------12-----9--|
D-9-----------9---------12-----7--|
A-7-----------9---------9---------|
E-------------7-------------------|
E B F#m A
(use chords here E- B- C#m- A the lead to this)
e---11-12-11-12-11----------|
B-----------------12--------|
G---------------------------|
D---------------------------|
A---------------------------|
E---------------------------|

E B
She's already taken,
F#m
She's already taken
A
She's already taken me

She's already taken,
She's already taken,
C#m-A-
She's already taken me

E B
e-----------------------|
B----9-10-9------4-5-4--|
G----9-----------4------|
D----9-----------4------|
A-----------------------|
E-----------------------|

A
The day you said goodnight


\m/rock on!!!

guest
You may want to rate the tab now too:
select rating
Wanna post a correction for this tab? Suggest correction