Oops, an error
Loading. Please wait.

Take No tab

version 3
version 3

Whole song

by Hale
227 views 1 this week
1 commentread comment
1 2 3 4 5
3 more votes to show rating
add to favorites
×
Save as Personal and add changes to this tab that will be seen only by you. Learn more ›
×
You can save this tab as Personal to edit and correct it or add notes. All changes will be seen only by you. Learn more »
launch autoscroll
font size
0
reset
how to read this tab
guitar tuner
edit
Autoscroll
slow
fast
+/-
esc
set tempo
stop
Author
Take No - By Hale
Tabbed by: Raymond Christian C. Salas
blueicedcube@gmail.com

——————————————————————————————————————————————
Dedicated to sa lahat ng Halers! Hale For All,
All For Hale! You guyz rock! pa add na lang po
sa friendster.... kung may mali po sa tabs paki
email na lang din po! salamat! ^_^
——————————————————————————————————————————————
salamat dun sa pinsan kong si Mico Matibag dahil
sa kanya nakilala ko ang hale...
——————————————————————————————————————————————
No To Piracy! Mag limewire na lang kau! ehehe! :P
——————————————————————————————————————————————


-Standad Tuning-

Intro:

E ---------------------------------------------------------------------|
A  ---0------------------------------------9---------------------------|
D ----------------------------------------------------------------9----|
G -----------------------------------------------------------9-9-------|
B -------------------------------9-----------10-10-9--9----------------|
E ---------9-9-7---7-10-10---------------------------------------------|

Verse:

Effects: Digital Deley

*Note: kung mahirap kayo at walang pambili.. ulitin nyo na
 lang ng 2x ung huli tab... e di may deley na kayo! ehehe!

through hell and
E --------------------------------------------------------------------|
A --------------------------------------------------------------------|
D --------------------------------------------------------------------|
G --------------------------------------------------------------------|
B ---5----------------------------------------------------------------|
E ---7----------------------------------------------------------------|
back...

I.....
E -------------------------------------------------------------------|
A -------------------------------------------------------------------|
D -------------------------------------------------------------------|
G ----------9--------------------------------------------------------|
B ---10-9------------------------------------------------------------|
E -------------------------------------------------------------------|
never was....

and will again...
E -----------------------------------------------------------------|
A -----------------------------------------------------------------|
D -----------------------------------------------------------------|
G ---8-9-----------------------------------------------------------|
B -----------------------------------------------------------------|
E ---------7-------------------------------------------------------|

1st Pre-Chorus

I have failed to see.../These dreams they haunt me back...
Effects: Over Drive/Distortion with Digital Deley

s0- slide out
*pick up and down with rapid speed

E --------------------------------------------------------------|
A --------------------------------------------------------------|
D --------------------------------------------------------------|
G --------------------------------------------------------------|
B ------9-9-9-9-9-9-9s0-----------------------------------------|
E --------------------------------------------------------------|

2nd Pre-Chorus:

Effects: di ko ma distinguish kung anu e..
  pero sure ako na may effects dito...
  pero parang over drive yta to e...

I have failed to see.../These dreams they haunt me back...
E --------------------------------------------------------------|
A --------------------------------------------------------------|
D --------------------------------------------------------------|
G --------------------------------------------------------------|
B ------9/10/9/10/9/10/9/10-------------------------------------|
E --------------------------------------------------------------|


After bass solo:

Effects: Digital Deley
 kung walang deley ulitin nyo na lang ng 4x
 kada note..

Legend:
s0- slide out
 kung di nyo alam kung pano to... pakinggan nyo
 yung cd at malalaman nyo

E ----------------------------------------------------------------|
A ----------------------------------------------------------------|
D ----------------------------------------------------------------|
G ----------------------------------------------------------------|
B ----------------------------------------------------------------|
E -16-------------------------19----------------------19s0--------|


Chorus:

Note: I tremulo nyo to
Tremulo- picking up and down with rapid speed

Legend:
so- slide out
t- tremulo

whoooooo (3x)
E --------------------------------------------------------------|
A --------------------------------------------------------------|
D --------------------------------------------------------------|
G --------------------------------------------------------------|
B --------------------------------------------------------------|
E ---19t-16t-16s0-----------------------------------------------|

whoooooo
E --------------------------------------------------------------|
A --------------------------------------------------------------|
D --------------------------------------------------------------|
G --------------------------------------------------------------|
B --------------------------------------------------------------|
E ---16t-12t-12s0-----------------------------------------------|


Ending:
lagay nyo yung kamay sa fret then strum pero
walang pinipindot... move yung kamay pataas.

*Note: For better results and timing... pakinggan nyo yung cd

sana na enjoy nyo... sensya na kung mejo magulo pa
yung tabs... unang gawa ko kc to e...

            
            
Suggest correction
Creating personal tab
Creating personal tab
You can edit any tab online and save it as your Personal.

You can edit, replace or remove any tab part or add personal notes – all changes will be seen only by you.

Personal tabs can be accessed anytime from any device, even offline.
Learn more »
Give kudos to tab author, rate the tab!
1 2 3 4 5
comments
print report bad tab
1 comment total.
0 reply
blueicedcube 30 Oct 06, 2005 12:25 AM

eto pala dapat un... mejo nagkamali lang ako sa pag distinguish ng bend... pati slide... pero pwede na rin un...

2nd Pre-Chorus:

Effects: di ko ma distinguish kung anu e..
pero sure ako na may effects dito...
pero parang over drive yta to e...


I have failed to see.../These dreams they haunt me back...
E --------------------------------------------------------------|
A --------------------------------------------------------------|
D --------------------------------------------------------------|
G --------------------------------------------------------------|
B ------9/10/9/10/9/10/9/10-------------------------------------|
E --------------------------------------------------------------|

guest
You may want to rate the tab now too:
select rating
Wanna post a correction for this tab? Suggest correction