Oops, an error
Loading. Please wait.

Freak Like Me tab

version 2
version 2

Whole song

Interactive

7,116 views 24 this week
4 commentsread comments
1 2 3 4 5
x 5
add to favorites
×
Save as Personal and add changes to this tab that will be seen only by you. Learn more ›
×
You can save this tab as Personal to edit and correct it or add notes. All changes will be seen only by you. Learn more »
launch autoscroll
font size
0
reset
how to read this tab
guitar tuner
edit
Autoscroll
slow
fast
+/-
esc
set tempo
stop
Branin Blodgett
HshSlngngSlshr
Text Guitar Tab 

“Freak Like Me”
Halestorm

Tuning: Drop B (B F# B E G# C#  Low to High)

[Intro]
e|----------------------------------------------------------|
B|----------------------------------------------------------|
G|----------------------------------------------------------|
D|--0--5--8--5-7--------3-----------------------------------|
A|--0--3--6--3-5----------5-3-------------------------------|
E|--0-------------0-3-5-------6-5-3-------------------------|

e|----------------------------------------------------------|
B|----------------------------------------------------------|
G|----------------------------------------------------------|
D|--0--5--8--5-7--------------------------------------------|
A|--0--3--6--3-5--------------------------------------------|
E|--0-------------0-2-3-0-3-5-0-5-6-------------------------|

[Verse] (palm-muted chords)
e|----------------------------------------------------------|
B|----------------------------------------------------------|
G|----------------------------------------------------------|
D|--7-------------------------------------------------------|
A|--5----3----5----7----------------------------------------|
E|-------3----5----7----------------------------------------|

[Chorus]
e|----------------------------------------------------------|
B|----------------------------------------------------------|
G|-----------------*Chords!-Figure-out-the-rhythm*----------|
D|--0--7--0--7-----3----5----8--7---------------------------|
A|--0--5--0--5-----3----5----8--7---------------------------|
E|--0-----0--------3----5----8--7---------------------------|

[Pre-solo]
e|----------------------------------------------------------|
B|----------------------------------------------------------|
G|----------------------------------------------------------|
D|--0-------------------------------------------------------|
A|--0-------------------------------------------------------|
E|--0---10-0-13-0-10-12-exaggerated-vibrato-----------------|

[Solo]
e|----------------------------------------------------------|
B|--------------------------------------17b-17r-17b---------|
G|--Random-non-sense-with-a-slide-------17b-17r-17b---------|
D|----------------------------------------------------------|
A|----------------------------------------------------------|
E|----------------------------------------------------------|

e|----------------------------------------15--12--12--------|
B|----------------------------------------15--13--12--13b~~~|
G|---------------10-12-10-12-10-12-12b~~~-------------------|
D|--15-17-15~~~---------------------------------------------|
A|----------------------------------------------------------|
E|----------------------------------------------------------|

e|----------------------------------------------------------|
B|--13-10h13p10h13--10h13p10h13--10h13p10h13--10h13p10h13---|
G|----------------------------------------------------------|
D|----------------------------------------------------------|
A|----------------------------------------------------------|
E|----------------------------------------------------------|

e|------------------------------20bv------------------------|
B|tremolo-picked----------13--------------------------------|
G|----------------12--14------------------------------------|
D|--12---14---15--------------------------------------------|
A|----------------------------------------------------------|
E|----------------------------------------------------------|

[Under the solo]
e|----------------------------------------------------------|
B|----------------------------------------------------------|
G|----------------------------------------------------------|
D|--0----3----5----8--7-------------------------------------|
A|--0----3----5----8--7-------------------------------------|
E|--0----3----5----8--7-------------------------------------|

and thats pretty much it.

There is another guitar part playing under the chorus,
but it’s very hard to make out what is being played.

            
            
Suggest correction
Creating personal tab
Creating personal tab
You can edit any tab online and save it as your Personal.

You can edit, replace or remove any tab part or add personal notes – all changes will be seen only by you.

Personal tabs can be accessed anytime from any device, even offline.
Learn more »
comments
print report bad tab
4 comments total. Showing first comments.
-2 reply
jdstech95 10 Feb 20, 2015 07:03 PM

Lack of accuracy. lack of accuracy. that is all, thanks. k bye. I've had enough a s d f g h j k

0 reply
HshSlngngSlshr 95 Feb 26, 2015 01:12 PM

What part sounds incorrect to you?

-1 reply
DaveMustaine7 214 Mar 04, 2015 12:49 PM

For the intro it sounds like its being played on the low b. Something like this:
Intro
e|----------------------------------------------------------|
B|----------------------------------------------------------|
G|----------------------------------------------------------|
D|----------------------------------------------------------|
A|3-0-0-0-6-0-3-5-0-3-0---5-3-------------------------------|
E|3-0-0-0-6-0-3-5-0-3-0-------6-5-3-0-----------------------|

My guitar doesn't work very well in this tuning so I can't really check the rest of the tab but I think the intro uses a bunch of opens like that.

guest
You may want to rate the tab now too:
select rating
Wanna post a correction for this tab? Suggest correction