Oops, an error
Loading. Please wait.

I Like It Heavy tab

version 1
version 1

Whole song

Interactive

442 views 27 this week
no commentswrite comment
1 2 3 4 5
x 3
add to favorites
×
Save as Personal and add changes to this tab that will be seen only by you. Learn more ›
×
You can save this tab as Personal to edit and correct it or add notes. All changes will be seen only by you. Learn more »
launch autoscroll
font size
0
reset
how to read this tab
guitar tuner
edit
Autoscroll
slow
fast
+/-
esc
set tempo
stop
Tuning:
Guitar 1 - Drop E - (E B E A C# F#)
Guitar 2 - Drop B - (B F# B E G# C#)


 (Guitar 1)
 [Intro/Verse]

  (0:00)
F#|---------------------------------|---------------------------------|
C#|---------------------------------|---------------------------------|
A |-2---2---2-2---2---2---2---2-5-5-|-5-2-2---2-2---2---2---2---2-5-5-|
E |-2---2---2-2---2---2---2---2-5-5-|-5-2-2---2-2---2---2---2---2-5-5-|
B |-0---0---0-0---0---0---0---0-0-0-|-3-0-0---0-0---0---0---0---0-0-0-|
E |---------------------------------|---------------------------------| 2x
 
F#|---------------------------------|---------------------------------|
C#|---5-5---5-5---5---5---5---5-----|---------------------------------|
A |-5-4-4---4-4---4---4---4---4-5-5-|-5-2-2---2-2---2---2---2---2-5-5-|
E |-5-2-2---2-2---2---2---2---2-5-5-|-5-2-2---2-2---2---2---2---2-5-5-|
B |-3-2-2---2-2---2---2---2---2-0-0-|-3-0-0---0-0---0---0---0---0-0-0-|
E |---------------------------------|---------------------------------| 2x

  (0:30)
F#|---------------------------------|---------------------------------|
C#|---------------------------------|---------------------------------|
A |-5-2-2---2-2---2---2---2---2-5-5-|-5-2-2---2-2---2---2---2---2-5-5-|
E |-5-2-2---2-2---2---2---2---2-5-5-|-5-2-2---2-2---2---2---2---2-5-5-|
B |-3-0-0---0-0---0---0---0---0-0-0-|-3-0-0---0-0---0---0---0---0-0-0-|
E |---------------------------------|---------------------------------|

F#|---------------------------------|---------------------------------|
C#|---5-5---5-5---5---5---5---5-----|---------------------------------|
A |-5-4-4---4-4---4---4---4---4-5-5-|-5-2-2---2-2---2---2---2---2-5-5-|
E |-5-2-2---2-2---2---2---2---2-5-5-|-5-2-2---2-2---2---2---2---2-5-5-|
B |-3-2-2---2-2---2---2---2---2-0-0-|-3-0-0---0-0---0---0---0---0-0-0-|
E |---------------------------------|---------------------------------|

  (0:47)
F#|---------------------------------|----------------------------8b---|
C#|-5---5---5-5---5---5---5---5-----|---------------------------11b---|
A |-4---4---4-4---4---4---4---4-5-5-|-5-2-----------------------------|
E |-2---2---2-2---2---2---2---2-5-5-|-5-2-----------------------------|
B |-2---2---2-2---2---2---2---2-0-0-|-3-0-----------------------------|
E |---------------------------------|---------------------------------|

  [Chorus]

  (0:55)
F#|---------------------------------|---------------------------------|
C#|---------------------------------|---------------------------------|
A |-2-------------------------------|-2-------------------------------|
E |-2-------------------------------|-2-------------------------------|
B |-0-------------------------------|-0-------------------------------|
E |---------------------------------|---------------------------------|

F#|---------------------------------|---------------------------------|
C#|-5-------------------------------|---------------------------------|
A |-4-------------------------------|-2-------------------------------|
E |-2-------------------------------|-2-------------------------------|
B |-2-------------------------------|-0-------------------------------|
E |---------------------------------|---------------------------------|

F#|---------------------------------|---------------------------------|
C#|-5-------------------------------|---------------------------------|
A |-4-------------------------------|-----------------------------5-5-|
E |-2-------------------------------|-----------------------------5-5-|
B |-2-------------------------------|-----------------------------0-0-|
E |---------------------------------|---------------------------------|

  (1:15)
F#|---------------------------------|---------------------------------|
C#|---------------------------------|---------------------------------|
A |-2---2---2-2---2---2---2---2-5-5-|-5-2-2---2-2---2---2---2---2-5-5-|
E |-2---2---2-2---2---2---2---2-5-5-|-5-2-2---2-2---2---2---2---2-5-5-|
B |-0---0---0-0---0---0---0---0-0-0-|-3-0-0---0-0---0---0---0---0-0-0-|
E |---------------------------------|---------------------------------|

F#|---------------------------------|
C#|---------------------------------|
A |-5-2-2---2-2---2---2---2---2-5-5-|
E |-5-2-2---2-2---2---2---2---2-5-5-|
B |-3-0-0---0-0---0---0---0---0-0-0-|
E |---------------------------------|

  [Verse]

  (1:38)
F#|---------------------------------|---------------------------------|---------------------------------|
C#|---------------------------------|---5-5---5-5---5---5---5---5-----|---------------------------------|
A |-5-2-2---2-2---2---2---2---2-5-5-|-5-4-4---4-4---4---4---4---4-5-5-|-5-2-2---2-2---2---2---2---2-5-5-|
E |-5-2-2---2-2---2---2---2---2-5-5-|-5-2-2---2-2---2---2---2---2-5-5-|-5-2-2---2-2---2---2---2---2-5-5-|
B |-3-0-0---0-0---0---0---0---0-0-0-|-3-2-2---2-2---2---2---2---2-0-0-|-3-0-0---0-0---0---0---0---0-0-0-|
E |---------------------------------|---------------------------------|---------------------------------|

  [Chorus]

  (1:50)
F#|---------------------------------|---------------------------------|
C#|---------------------------------|---------------------------------|
A |-2-------------------------------|-2-------------------------------|
E |-2-------------------------------|-2-------------------------------|
B |-0-------------------------------|-0-------------------------------|
E |---------------------------------|---------------------------------|

F#|---------------------------------|---------------------------------|
C#|-5-------------------------------|---------------------------------|
A |-4-------------------------------|-2-------------------------------|
E |-2-------------------------------|-2-------------------------------|
B |-2-------------------------------|-0-------------------------------|
E |---------------------------------|---------------------------------|

F#|---------------------------------|---------------------------------|
C#|-5-------------------------------|---------------------------------|
A |-4-------------------------------|-----------------------------5-5-|
E |-2-------------------------------|-----------------------------5-5-|
B |-2-------------------------------|-----------------------------0-0-|
E |---------------------------------|---------------------------------|

  (2:10)
F#|---------------------------------|---------------------------------|
C#|---------------------------------|---------------------------------|
A |-2---2---2-2---2---2---2---2-5-5-|-5-2-2---2-2---2---2---2---2-5-5-|
E |-2---2---2-2---2---2---2---2-5-5-|-5-2-2---2-2---2---2---2---2-5-5-|
B |-0---0---0-0---0---0---0---0-0-0-|-3-0-0---0-0---0---0---0---0-0-0-|
E |---------------------------------|---------------------------------|

F#|---------------------------------|
C#|---------------------------------|
A |-5-2-2---2-2---2---2---2---2-5-5-|
E |-5-2-2---2-2---2---2---2---2-5-5-|
B |-3-0-0---0-0---0---0---0---0-0-0-|
E |---------------------------------|

  (2:22)
F#|---------------------------------|
C#|---------------------------------|
A |-2-2-2-2-2-2-2-2-2-2-2-2-2-2-2-2-|
E |-2-2-2-2-2-2-2-2-2-2-2-2-2-2-2-2-|
B |-0-0-0-0-0-0-0-0-0-0-0-0-0-0-0-0-|
E |---------------------------------| 2x

F#|---------------------------------|---------------------------------|
C#|---------------------------------|---------------------------------|
A |-7-7-7-7-7-7-7-7-5-5-5-5-5-5-5-5-|-2-2-2-2-2-2-2-2-2-2-2-2-2-2-2-2-|
E |-7-7-7-7-7-7-7-7-5-5-5-5-5-5-5-5-|-2-2-2-2-2-2-2-2-2-2-2-2-2-2-2-2-|
B |-5-5-5-5-5-5-5-5-3-3-3-3-3-3-3-3-|-0-0-0-0-0-0-0-0-0-0-0-0-0-0-0-0-|
E |---------------------------------|---------------------------------|

  [Verse]

   (2:41)
   PM--------------------------|      PM-------------|
F#|---------------------------------|---------------------------------|
C#|---------------------------------|---------------------------------|
A |---------------------------------|---------------------------------|
E |-----------------------------5-5-|-----------------5---------------|
B |-0-0-0-0-0-0-0-0-0-0-0-0-0-0-0-0-|-0-0-0-0-0-0-0-0-0---------------|
E |---------------------------------|---------------------------------|

  [Chorus]

  (2:52)
F#|---------------------------------|---------------------------------|
C#|---------------------------------|---------------------------------|
A |-2---2---2-2---2---2---2---2-5-5-|-5-2-2---2-2---2---2---2---2-5-5-|
E |-2---2---2-2---2---2---2---2-5-5-|-5-2-2---2-2---2---2---2---2-5-5-|
B |-0---0---0-0---0---0---0---0-0-0-|-3-0-0---0-0---0---0---0---0-0-0-|
E |---------------------------------|---------------------------------|

F#|---------------------|---------------------|
C#|---------------------|---------------------|
A |---------------------|---------------------|
E |-2-2-2-2-2-----------|---------------------|
B |-0-0-0-0-0-5-5-5-5-5-|-4-4-4-4-4-2-2-2-2-2-|
E |-----------5-5-5-5-5-|-4-4-4-4-4-2-2-2-2-2-| 4x



  (Guitar 2)
  [Verse]

  (0:31)
C#|---------------------------------|
G#|---------------------------------|
E |---------------------------------|
B |---------------------------0-----|
F#|---------------------------0-3-3-|
B |-----------------------------3-3-|

  (0:32)
C#|---------------------------------|---------------------------------|
G#|---------------------------------|---------------------------------|
E |---------------------------------|---------------------------------|
B |---0-0---0-0---0---0---0---0-----|-0-0-0---0-0---------------------|
F#|-3-0-0---0-0---0---0---0---0-3-3-|-0-0-0---0-0---------------------|
B |-3---------------------------3-3-|---------------------------------|

  (0:44)
C#|---------------------------------|---------------------------------|
G#|---------------------------------|---------------------------------|
E |---------------------------------|---------------------------------|
B |---0-0---0-0---0---0---0---0-----|-7---7---7-7---7---7---7---7-----|
F#|-3-0-0---0-0---0---0---0---0-3-3-|-7---7---7-7---7---7---7---7-3-3-|
B |-3---------------------------3-3-|-----------------------------3-3-|

  (0:50)
C#|---------------------------------|
G#|---------------------------------|
E |---------------------------------|
B |---0-----------------------------|
F#|-3-0-----------------------------|
B |-3-------------------------------|

  [Chorus]

  (0:55)
C#|---------------------------------|---------------------------------|
G#|---------------------------------|---------------------------------|
E |---------------------------------|---------------------------13----|
B |-12---------------------12-15-12-|-12---------------------12----15-|
F#|-12------------------------------|-12------------------------------|
B |---------------------------------|---------------------------------|

C#|---------------------------------|---------------------------------|
G#|---------------------------------|---------------------------------|
E |------------------------13-------|---------------------------13----|
B |-14------------------------15-12-|-12---------------------12----12-|
F#|-12------------------------------|-12------------------------------|
B |---------------------------------|---------------------------------|

C#|---------------------------------|
G#|---------------------------------|
E |---------------------------------|
B |-14------------------------------|
F#|-12------------------------------|
B |---------------------------------|

  (1:15)
C#|---------------------------------|---------------------------------|
G#|---------------------------------|---------------------------------|
E |---------------------------------|---------------------------------|
B |-0---0---0-0---0---0---0---0-----|---0-0---0-0---0---0---0---0-----|
F#|-0---0---0-0---0---0---0---0-3-3-|-3-0-0---0-0---0---0---0---0-3-3-|
B |-----------------------------3-3-|-3---------------------------3-3-|

C#|---------------------------------|
G#|---------------------------------|
E |---------------------------------|
B |---0-0---0-0---0---0---0---0-----|
F#|-3-0-0---0-0---0---0---0---0-3-3-|
B |-3---------------------------3-3-|

  [Verse]

  (1:38)
C#|---------------------------------|---------------------------------|
G#|---------------------------------|---------------------------------|
E |---------------------------------|---------------------------------|
B |---0-0---0-0---0---0---0---0-----|-7---7---7-7---7---7---7---7-----|
F#|-3-0-0---0-0---0---0---0---0-3-3-|-7---7---7-7---7---7---7---7-3-3-|
B |-3---------------------------3-3-|-----------------------------3-3-|

C#|---------------------------------|
G#|---------------------------------|
E |---------------------------------|
B |---------------------------------|
F#|-3-------------------------------|
B |-3-------------------------------|


  [Chorus]

  (1:50)
C#|---------------------------------|---------------------------------|
G#|---------------------------------|---------------------------------|
E |---------------------------------|---------------------------13----|
B |-12---------------------12-15-12-|-12---------------------12----15-|
F#|-12------------------------------|-12------------------------------|
B |---------------------------------|---------------------------------|

C#|---------------------------------|---------------------------------|
G#|---------------------------------|---------------------------------|
E |------------------------13-------|---------------------------13----|
B |-14------------------------15-12-|-12---------------------12----12-|
F#|-12------------------------------|-12------------------------------|
B |---------------------------------|---------------------------------|

C#|---------------------------------|
G#|---------------------------------|
E |---------------------------------|
B |-14------------------------------|
F#|-12------------------------------|
B |---------------------------------|

  (2:10)
C#|---------------------------------|---------------------------------|
G#|---------------------------------|---------------------------------|
E |---------------------------------|---------------------------------|
B |-0---0---0-0---0---0---0---0-----|---0-0---0-0---0---0---0---0-----|
F#|-0---0---0-0---0---0---0---0-3-3-|-3-0-0---0-0---0---0---0---0-3-3-|
B |-----------------------------3-3-|-3---------------------------3-3-|

C#|---------------------------------|
G#|---------------------------------|
E |---------------------------------|
B |---0-0---0-0---0---0---0---0-----|
F#|-3-0-0---0-0---0---0---0---0-3-3-|
B |-3---------------------------3-3-|

   (2:22)
C#|---------------------------------|
G#|---------------------------------|
E |---------------------------------|
B |---------------------------------|
F#|---------------------------------|
B |-0-0-3-5-0-0-3-5-0-0-3-5-7-5-3-5-| 2x

C#|---------------------------------|
G#|---------------------------------|
E |---------------------------------|
B |---------------------------------|
F#|---------------------------------|
B |-7-7-7-7-7-7-7-7-5-5-5-5-5-5-5-5-|

C#|---------------------------------|
G#|---------------------------------|
E |---------------------------------|
B |---------------------------------|
F#|---------------------------------|
B |-0-0-3-5-0-0-3-5-0-0-3-5-7-5-3-5-|

  [Chorus]

   (2:52)
C#|---------------------------------|---------------------------------|
G#|---------------------------------|---------------------------------|
E |---------------------------------|---------------------------------|
B |-0---0---0-0---0---0---0---0-----|---0-0---0-0---0---0---0---0-----|
F#|-0---0---0-0---0---0---0---0-3-3-|-3-0-0---0-0---0---0---0---0-3-3-|
B |-----------------------------3-3-|-3---------------------------3-3-|

C#|---------------------------------|
G#|---------------------------------|
E |---------------------------------|
B |---0-0---0-0---0---0---0---0-----|
F#|-3-0-0---0-0---0---0---0---0-3-3-|
B |-3---------------------------3-3-|

C#|---------------------|---------------------|
G#|---------------------|---------------------|
E |---------------------|---------------------|
B |-7-7-7-7-7-5-5-5-5-5-|-4-4-4-4-4-2-2-2-2-2-|
F#|-5-5-5-5-5-3-3-3-3-3-|-2-2-2-2-2-0-0-0-0-0-|
B |---------------------|---------------------|


PM - Palm Mute
B  - Bend

            
            
Suggest correction
Creating personal tab
Creating personal tab
You can edit any tab online and save it as your Personal.

You can edit, replace or remove any tab part or add personal notes – all changes will be seen only by you.

Personal tabs can be accessed anytime from any device, even offline.
Learn more »
Give kudos to tab author, rate the tab!
1 2 3 4 5
comments
print report bad tab
guest
You may want to rate the tab now too:
select rating
Wanna post a correction for this tab? Suggest correction