Oops, an error
Loading. Please wait.

Unapologetic solo tab

97 views 3 this week
1 commentread comment
1 2 3 4 5
1 last vote to show rating
add to favorites
×
Save as Personal and add changes to this tab that will be seen only by you. Learn more ›
×
You can save this tab as Personal to edit and correct it or add notes. All changes will be seen only by you. Learn more »
launch autoscroll
font size
0
reset
how to read this tab
guitar tuner
edit
Autoscroll
slow
fast
+/-
esc
set tempo
stop
About this tab version
Tab request for Halestorm's Outro Lead parts. Main solo can be done later if requested. Was this info helpful? Yes No
Halestorm - Unapologetic (Solo Guitar Parts)


[Main Solo]
 
   (2:11)
e|-14-----14------14--------14----14---14-----------|-14-----14--17p14----14----------14----------------14---|
B|-17b19--b19-----b19-------b19---b19-----17p14-----|-17b19------------14----17b19-------17p14-17-14-17----17|
G|--------------------------------------------------|--------------------------------------------------------|
D|--------------------------------------------------|--------------------------------------------------------|
A|--------------------------------------------------|--------------------------------------------------------|
D|--------------------------------------------------|--------------------------------------------------------|
 
Rest during lyrics for 2 bars, then continue:
 
e|----------------------------------|----------------------------------------|----------------------------|
B|-19b21_______r19p17-19~----19b21--|-19b21_________r19p17-19~-----19p17-----|-17-------------------------|
G|----------------------------------|------------------------------------18--|----18~---------------------|
D|----------------------------------|----------------------------------------|----------------------------|
A|----------------------------------|----------------------------------------|----------------------------|
D|----------------------------------|----------------------------------------|----------------------------|




[Outro Solo]

e|---------------------|----------------------|---------------------|---------------------|
B|---------------------|----------------------|---------------------|---------------------|
G|---------9-----------|--------8-9p8---------|---------9-----------|--------8-9p8--------|
D|-9h11p9-------11-----|---------------11p9---|-9h11p9-------11-----|---------------11p9--|
A|---------------------|----------------------|---------------------|---------------------|
D|---------------------|----------------------|---------------------|---------------------|

e|---------------------|----------------------|---------------------|---------------------|
B|---------------------|----------------------|---------------------|---------------9-----|
G|---------9-----------|--------8-9p8---------|---------9-----------|--------8h9----------|
D|-9h11p9-------11-----|---------------11p9---|-9h11p9-------11-----|-------------9-------|
A|---------------------|----------------------|---------------------|---------------------|
D|---------------------|----------------------|---------------------|---------------------|

e|---------------------|----------------------|---------------------|---------------------|
B|---------------------|----------------------|---------------------|------------9---9----|
G|---------9---------8-|-9p8-----8-9p8--------|---------9---------8-|-9p8-----------------|
D|-9h11p9-------11-----|------11-------11p9---|-9h11p9-------11-----|------11p9----9------|
A|---------------------|----------------------|---------------------|---------------------|
D|---------------------|----------------------|---------------------|---------------------|

repeat last line during fade out



************************************

| h   Hammer-on
| p   Pull-off
| r   Release
| b   Bend
| ~   Vibrato

************************************

            
            
Suggest correction
Creating personal tab
Creating personal tab
You can edit any tab online and save it as your Personal.

You can edit, replace or remove any tab part or add personal notes – all changes will be seen only by you.

Personal tabs can be accessed anytime from any device, even offline.
Learn more »
Give kudos to tab author, rate the tab!
1 2 3 4 5
comments
print report bad tab
1 comment total.
0 reply
dcwillibey 144 Aug 08, 2017 08:43 AM

Any chance you could do the main solo as well please?

guest
You may want to rate the tab now too:
select rating
Wanna post a correction for this tab? Suggest correction