Oops, an error
Loading. Please wait.

Fire Escape tab

version 3
version 3

Whole song

  • Tabs and chords are more accurate to how Devon Por... Show more
1,210 views 18 this week
no commentswrite comment
1 2 3 4 5
x 3
add to favorites
×
Save as Personal and add changes to this tab that will be seen only by you. Learn more ›
×
You can save this tab as Personal to edit and correct it or add notes. All changes will be seen only by you. Learn more »
launch autoscroll
font size
0
reset
how to read this tab
guitar tuner
edit
Autoscroll
slow
fast
+/-
esc
set tempo
stop
Author
Difficulty
About this tab version
Tabs and chords are more accurate to how Devon Portielje actually plays the song. This version has the lyrics and all the parts of the song are marked. Was this info helpful? Yes No
--------------------------------------------------------------------------------------------------------------
                                       Fire Escape - Half Moon Run
--------------------------------------------------------------------------------------------------------------

[Intro]

   Am                                                C
e|-------0-------0-------0-------0-------0-------0-|-------0-------0-------0-------0-------0-------0-|
B|----13------13------13------13------13------13---|----13------13------13------13------13------13---|
G|-14------14------14------14------14------14------|-12------12------12------12--------------12------| x2
D|-------------------------------------------------|---------------------------------14--------------|
A|-------------------------------------------------|-------------------------------------------------|
E|-------------------------------------------------|-------------------------------------------------|


[Verse]

   Am                                                C
e|-------0-------0-------0-------0-------0-------0-|-------0-------0-------0-------0-------0-------0-|
B|----13------13------13------13------13------13---|----13------13------13------13------13------13---|
G|-14------14------14------14------14------14------|-12------12------12------12--------------12------|
D|-------------------------------------------------|---------------------------------14--------------|
A|-------------------------------------------------|-------------------------------------------------|
E|-------------------------------------------------|-------------------------------------------------|
                   Hey dark eyes,
   Am                                                C
e|-------0-------0-------0-------0-------0-------0-|-------0-------0-------0-------0-------0-------0-|
B|----13------13------13------13------13------13---|----13------13------13------13------13------13---|
G|-14------14------14------14------14------14------|-12------12------12------12------12------12------|
D|-------------------------------------------------|-------------------------------------------------|
A|-------------------------------------------------|-------------------------------------------------|
E|-------------------------------------------------|-------------------------------------------------|
                          Rest with me a while            as I drift         closer to sleep
   Am                                                C
e|-------0-------0-------0-------0-------0-------0-|-------0-------0-------0-------0-------0-------0-|
B|----13------13------13------13------13------13---|----13------13------13------13------13------13---|
G|-14------14------14------14------14------14------|-12------12------12------12--------------12------|
D|-------------------------------------------------|---------------------------------14--------------|
A|-------------------------------------------------|-------------------------------------------------|
E|-------------------------------------------------|-------------------------------------------------|
                       But still cannot
   Am                                                C
e|-------0-------0-------0-------0-------0-------0-|-------0-------0-------0-------0-------0-------0-|
B|----13------13------13------13------13------13---|----13------13------13------13------13------13---|
G|-14------14------14------14------14------14------|-12------12------12------12------12------12------|
D|-------------------------------------------------|-------------------------------------------------|
A|-------------------------------------------------|-------------------------------------------------|
E|-------------------------------------------------|-------------------------------------------------|
                           Still cannot find                              no peace 


[Chorus]

   F                                                       Am                      G
e|-------------------------------------------------------|---------------------------------------------------|
B|-------13-------13-------13-------13-------13-------13-|------10------10------10-------12-------12-------12|
G|----14-------14-------14-------14-------14-------14----|----9-------9-------9-------12-------12-------12---|
D|-15-------15-------15-------15-------15-------15-------|-10------10------10------12-------12-------12------|
A|-------------------------------------------------------|---------------------------------------------------|
E|-------------------------------------------------------|---------------------------------------------------|
And you                       let go of glass                                   at our feet
   C                                           E
e|-------------------------------------------|-------------------------------------|
B|------8------8------8------8------8------8-|-----9-----9-----9-----9-----9-----9-|
G|----9------9------9------9------9------9---|---9-----9-----9-----9-----9-----9---|
D|-10-----10-----10-----10-----10-----10-----|-9-----9-----9-----9-----9-----9-----|
A|------------------------------------------ |-------------------------------------|
E|-------------------------------------------|-------------------------------------|
                    Did rang through the nigth 
   F                                                       Am                      G
e|-------------------------------------------------------|---------------------------------------------------|
B|-------13-------13-------13-------13-------13-------13-|------10------10------10-------12-------12-------12|
G|----14-------14-------14-------14-------14-------14----|----9-------9-------9-------12-------12-------12---|
D|-15-------15-------15-------15-------15-------15-------|-10------10------10------12-------12-------12------|
A|-------------------------------------------------------|---------------------------------------------------|
E|-------------------------------------------------------|---------------------------------------------------|
And you                                take the fire                               escape
   C                                           E
e|-------------------------------------------|-------------------------------------|
B|------8------8------8------8------8------8-|-----9-----9-----9-----9-----9-----9-|
G|----9------9------9------9------9------9---|---9-----9-----9-----9-----9-----9---|
D|-10-----10-----10-----10-----10-----10-----|-9-----9-----9-----9-----9-----9-----|
A|------------------------------------------ |-------------------------------------|
E|-------------------------------------------|-------------------------------------|
                        Run down the street to the church


[Harmonica solo]

   Am                                                C
e|-------0-------0-------0-------0-------0-------0-|-------0-------0-------0-------0-------0-------0-|
B|----13------13------13------13------13------13---|----13------13------13------13------13------13---|
G|-14------14------14------14------14------14------|-12------12------12------12--------------12------| x4
D|-------------------------------------------------|---------------------------------14--------------|
A|-------------------------------------------------|-------------------------------------------------|
E|-------------------------------------------------|-------------------------------------------------|


[Verse]

   Am                                                C
e|-------0-------0-------0-------0-------0-------0-|-------0-------0-------0-------0-------0-------0-|
B|----13------13------13------13------13------13---|----13------13------13------13------13------13---|
G|-14------14------14------14------14------14------|-12------12------12------12--------------12------|
D|-------------------------------------------------|---------------------------------14--------------|
A|-------------------------------------------------|-------------------------------------------------|
E|-------------------------------------------------|-------------------------------------------------|
                   Hey murderer,
   Am                                                C
e|-------0-------0-------0-------0-------0-------0-|-------0-------0-------0-------0-------0-------0-|
B|----13------13------13------13------13------13---|----13------13------13------13------13------13---|
G|-14------14------14------14------14------14------|-12------12------12------12------12------12------|
D|-------------------------------------------------|-------------------------------------------------|
A|-------------------------------------------------|-------------------------------------------------|
E|-------------------------------------------------|-------------------------------------------------|
                       The killing keeps us                                  close enough
   Am                                                C
e|-------0-------0-------0-------0-------0-------0-|-------0-------0-------0-------0-------0-------0-|
B|----13------13------13------13------13------13---|----13------13------13------13------13------13---|
G|-14------14------14------14------14------14------|-12------12------12------12--------------12------|
D|-------------------------------------------------|---------------------------------14--------------|
A|-------------------------------------------------|-------------------------------------------------|
E|-------------------------------------------------|-------------------------------------------------|
                   Hey murderer,
   Am                                                C
e|-------0-------0-------0-------0-------0-------0-|-------0-------0-------0-------0-------0-------0-|
B|----13------13------13------13------13------13---|----13------13------13------13------13------13---|
G|-14------14------14------14------14------14------|-12------12------12------12------12------12------|
D|-------------------------------------------------|-------------------------------------------------|
A|-------------------------------------------------|-------------------------------------------------|
E|-------------------------------------------------|-------------------------------------------------|
               Every breath you steal is a            breath that I          breathe for


[Chorus]

   F                                                       Am                      G
e|-------------------------------------------------------|---------------------------------------------------|
B|-------13-------13-------13-------13-------13-------13-|------10------10------10-------12-------12-------12|
G|----14-------14-------14-------14-------14-------14----|----9-------9-------9-------12-------12-------12---|
D|-15-------15-------15-------15-------15-------15-------|-10------10------10------12-------12-------12------|
A|-------------------------------------------------------|---------------------------------------------------|
E|-------------------------------------------------------|---------------------------------------------------|
   You                        let go of glass                                   at our feet
   C                                           E
e|-------------------------------------------|-------------------------------------|
B|------8------8------8------8------8------8-|-----9-----9-----9-----9-----9-----9-|
G|----9------9------9------9------9------9---|---9-----9-----9-----9-----9-----9---|
D|-10-----10-----10-----10-----10-----10-----|-9-----9-----9-----9-----9-----9-----|
A|------------------------------------------ |-------------------------------------|
E|-------------------------------------------|-------------------------------------|
                    Did rang through the nigth 
   F                                                       Am                       G
e|-------------------------------------------------------|---------------------------------------------------|
B|-------13-------13-------13-------13-------13-------13-|------10------10------10-------12-------12-------12|
G|----14-------14-------14-------14-------14-------14----|----9-------9-------9-------12-------12-------12---|
D|-15-------15-------15-------15-------15-------15-------|-10------10------10------12-------12-------12------|
A|-------------------------------------------------------|---------------------------------------------------|
E|-------------------------------------------------------|---------------------------------------------------|
And you                                take the fire                               escape
   C                                           E
e|-------------------------------------------|-------------------------------------|
B|------8------8------8------8------8------8-|-----9-----9-----9-----9-----9-----9-|
G|----9------9------9------9------9------9---|---9-----9-----9-----9-----9-----9---|
D|-10-----10-----10-----10-----10-----10-----|-9-----9-----9-----9-----9-----9-----|
A|------------------------------------------ |-------------------------------------|
E|-------------------------------------------|-------------------------------------|
                        Run down the street to the church 


[Harmonica solo]

   Am                                                C
e|-------0-------0-------0-------0-------0-------0-|-------0-------0-------0-------0-------0-------0-|
B|----13------13------13------13------13------13---|----13------13------13------13------13------13---|
G|-14------14------14------14------14------14------|-12------12------12------12--------------12------| x2
D|-------------------------------------------------|---------------------------------14--------------|
A|-------------------------------------------------|-------------------------------------------------|
E|-------------------------------------------------|-------------------------------------------------|      


[Chorus]

   F                                                       Am                      G
e|-------------------------------------------------------|---------------------------------------------------|
B|-------13-------13-------13-------13-------13-------13-|------10------10------10-------12-------12-------12|
G|----14-------14-------14-------14-------14-------14----|----9-------9-------9-------12-------12-------12---|
D|-15-------15-------15-------15-------15-------15-------|-10------10------10------12-------12-------12------|
A|-------------------------------------------------------|---------------------------------------------------|
E|-------------------------------------------------------|---------------------------------------------------|
And you                       let go of glass                                   at our feet
   C                                           E
e|-------------------------------------------|-------------------------------------|
B|------8------8------8------8------8------8-|-----9-----9-----9-----9-----9-----9-|
G|----9------9------9------9------9------9---|---9-----9-----9-----9-----9-----9---|
D|-10-----10-----10-----10-----10-----10-----|-9-----9-----9-----9-----9-----9-----|
A|------------------------------------------ |-------------------------------------|
E|-------------------------------------------|-------------------------------------|
                    Did rang through the nigth 
   F                                                       Am                      G
e|-------------------------------------------------------|---------------------------------------------------|
B|-------13-------13-------13-------13-------13-------13-|------10------10------10-------12-------12-------12|
G|----14-------14-------14-------14-------14-------14----|----9-------9-------9-------12-------12-------12---|
D|-15-------15-------15-------15-------15-------15-------|-10------10------10------12-------12-------12------|
A|-------------------------------------------------------|---------------------------------------------------|
E|-------------------------------------------------------|---------------------------------------------------|
And you                                take the fire                               escape
   C                                           E
e|-------------------------------------------|-------------------------------------|
B|------8------8------8------8------8------8-|-----9-----9-----9-------------------|
G|----9------9------9------9------9------9---|---9-----9-----9---------------------|
D|-10-----10-----10-----10-----10-----10-----|-9-----9-----9-----9-----------------|
A|------------------------------------------ |-------------------------------------|
E|-------------------------------------------|-------------------------------------|
                        Run down the street to the church

            
            
Suggest correction
Creating personal tab
Creating personal tab
You can edit any tab online and save it as your Personal.

You can edit, replace or remove any tab part or add personal notes – all changes will be seen only by you.

Personal tabs can be accessed anytime from any device, even offline.
Learn more »
Give kudos to tab author, rate the tab!
1 2 3 4 5
comments
print report bad tab
guest
You may want to rate the tab now too:
select rating
Wanna post a correction for this tab? Suggest correction