Oops, an error
Loading. Please wait.

Nerve chords

version 2
version 2

Whole song

169 views 9 this week
no commentswrite comment
1 2 3 4 5
2 more votes to show rating
add to favorites
×
Save as Personal and add changes to this tab that will be seen only by you. Learn more ›
×
You can save this tab as Personal to edit and correct it or add notes. All changes will be seen only by you. Learn more »
launch autoscroll
font size
0
reset
transpose
0
reset
simplify chords
display chords
guitar tuner
edit
Autoscroll
slow
fast
+/-
esc
set tempo
stop
Strumming
There is no strumming pattern for this song yet. and get +5 IQ
Nerve, by Half Moon Run (album Dark Eyes)

All chords relative to capo on 1st fret

Special chords :
Cmaj7   x32000
A6/9    x04200
Am6     x04210
Cmaj9   x32430
Dsus2   xx0230
GM7     320002

[Intro]
Guitar 1 (piano)
Cmaj7 Cmaj7 A6/9 Am6


Guitar 2 (riff) (same each time you hear it)
e|-----3-2-0-0-0-|
B|---------------|
G|---------------|
D|---------------|
A|---------------|
E|---------------|

[Verse]
                                 Cmaj7
There's a lot of nothing in the words I know
                                 A6/9           Am6
But I keep on talking 'cause it feels like home
                     Cmaj7
Feels alright to be growing old
                         A6/9
But growing old is just letting go
          Am6                         Cmaj7
And it's just the reason I needed to leave this place
                             A6/9      Am6
I took the whole morning to run away
                        Cmaj7
I had a different image on my mind
                            A6/9          Am6   Bm
It's just it changes always, all the time

[Chorus]
N.C.
And it comes as no surprise as I
Cmaj9       Cmaj7
Oouuh----Ouh
Dsus2
I just don't know what you're doing
Em7       Em
Oouuh----Ouh
GM7         Cmaj9      Cmaj7
Wrong, yeah
Dsus2  Bm 
Wrong, wrong
Man, you've got a lot of nerve

Guitar 2 pattern for Chorus :
e|--10-12-7--7-5-3-5-5/7--10-12-7--2--|
B|---------------------------------3--|
G|--11-12-7--7-5-4-5-5/7--11-12-7--4--|
D|------------------------------------|
A|------------------------------------|
E|------------------------------------| x2

[Solo]
e|----------------------------------------------------------------12--12-10------------------------|
B|-------------------------------------10-10-10-10---------------------------12--------------------|
G|-12-11-9-9-9--9-12--12-11-9-9-9--9-12--12--12-12--12-11-9-9-9--9--12-----12-----12-11-9-9-9-9-9--|
D|------------12-----------------12----------------------------12----------------------------------|
A|-------------------------------------------------------------------------------------------------|
E|-------------------------------------------------------------------------------------------------|

[Verse]
                              Cmaj7
How come all my vices always breed relief
                           A6/9           Am6
When a sip of gin saves an hour of speech?
                            Cmaj7
And yeh it's fickle and it feels so cheap
                          A6/9
But I can rest and I can feel at ease
         Am6                                      Cmaj7
It's my friends don't know the half they're just listening
                         A6/9      Am6
I'm at a loss 'cause I'm living it
                            Cmaj7
That's not to say that I'm giving in
                                A6/9       Am6  Bm
It's just that this is how it's always been

[Chorus]
N.C.
And it comes as no surprise as I
Cmaj9       Cmaj7
Oouuh----Ouh
Dsus2
I just don't know what you're doing
Em7       Em
Oouuh----Ouh
GM7         Cmaj9      Cmaj7
Wrong, yeah
Dsus2  Bm
Wrong, wrong

Man, you've got a lot of nerve

[Bridge]
Guitar 1 (piano)
Cmaj7 Cmaj7 A6/9 Am6

Guitar 2 (riff) (same each time you hear it)
e|-----3-2-0-0-0-|
B|---------------|
G|---------------|
D|---------------|
A|---------------|
E|---------------|

[Outro]
Cmaj9     Cmaj7  Dsus2                  Em7 Em      Gmaj7
               I can't melt all of my worries to nothing
Cmaj9     Cmaj7  Dsus2  Bm
                 And I would
Cmaj9     Cmaj7  Dsus2                  Em7 Em      Gmaj7
                 I keep trying but I always get let down
Cmaj9     Cmaj7  Dsus2  Bm
                   Somehow

Man you've got a lot of nerve

********************************
| /   Slide up
********************************

            
            
Suggest correction
Creating personal tab
Creating personal tab
You can edit any tab online and save it as your Personal.

You can edit, replace or remove any tab part or add personal notes – all changes will be seen only by you.

Personal tabs can be accessed anytime from any device, even offline.
Learn more »
Give kudos to tab author, rate the tab!
1 2 3 4 5
comments
print report bad tab
guest
Wanna post a correction for this tab? Suggest correction