Oops, an error
Loading. Please wait.

French Class bass

91 views 6 this week
no commentswrite comment
1 2 3 4 5
3 more votes to show rating
add to favorites
×
Save as Personal and add changes to this tab that will be seen only by you. Learn more ›
×
You can save this tab as Personal to edit and correct it or add notes. All changes will be seen only by you. Learn more »
launch autoscroll
font size
0
reset
guitar tuner
edit
Autoscroll
slow
fast
+/-
esc
set tempo
stop
Artist: Halfnoise
Song: French Class
Tuning - Standard
tabbed by electricbunny

[Intro]
G|--------------------------------|--------------------------------|
D|--------------------------------|----------------------------3---|
A|--------------------------------|--------------------------------|
E|--------------------------------|--------------------------------|
 
G|0-------------------------------|--------------------------------|
D|--------------------------------|--------------------------------|
A|--------------------------------|--------------------------------|
E|--------------------------------|--------------------------------|

G|7-----------5-------------------|----2-----------0---------------|
D|------------------------8-------|------------------------0-------|
A|--------------------------------|--------------------------------|
E|--------------------------------|--------------------------------|
 
G|--------------------------------|--------------------------------|
D|--------------------------------|----------------0---0---0---2---|
A|--------------------------------|------------0-3-----------------|
E|3-----------3-----------3-------|--------------------------------|
 
G|--------------------------------|----------------5-5-----5-5-----|
D|--------------------------------|--------------------------------|
A|3-----------3-----------3-------|--------------------------------|
E|--------------------------------|--------------------------------|
 
G|--------------------------------|--------------------------------|
D|--------------------------------|----------------0---0---0---2---|
A|--------------------------------|------------0-3-----------------|
E|3-----------3-----------3-------|--------------------------------|
 
G|--------------------------------|--------------------------14----|
D|--------------------------------|--------------------------------|
A|3-----------3-----------3-------|----------------3-15----12------|
E|--------------------3-----------|--------------------------------|
 
[Verse] 
G|--------------------------------|--------------------------------|
D|--------------------------------|----------------0---0---0---0---|
A|--------------------------------|--------------0-----------------|
E|3-----------3-----------3-------|------------3-------------------|
 
G|--------------------------------|--------------------------------|
D|--------------------------------|----------------1---0-----------|
A|3-----------3-----------3-------|--------------0---------3---0---|
E|--------------------------------|--------------------------------|
 
G|--------------------------------|--------------------------------|
D|--------------------------------|----------------0---0---0---0---|
A|--------------------------------|--------------0-----------------|
E|3-----------3-----------3-------|------------3-------------------|
 
G|--------------------------------|----------------5-------5-------|
D|--------------------------------|--------------------------------|
A|3-----------3-----------3-------|--------------------------------|
E|--------------------------------|--------------------------------|
 
G|--------------------------------|--------------------------------|
D|--------------------------------|----------------0---0---0---0---|
A|--------------------------------|--------------0-----------------|
E|3-----------3-----------3-------|------------3-------------------|
 
G|--------------------0-----------|--------------------------------|
D|--------------------------------|----------------1---0-----------|
A|3-----------3-----------3-------|--------------0---------3---0---|
E|--------------------------------|--------------------------------|
 
[Chorus] 
G|--------------------------------|--------------------------------|
D|--------------------------------|----------------0---0---0---0---|
A|--------------------------------|--------------0-----------------|
E|3-----------3-----------3-------|------------3-------------------|
 
G|--------------------------------|----5-----5-----5-----5---5-----|
D|--------------------------------|--------------------------------|
A|3-----------3-----------3-------|3-------3-----3-----3-----------|
E|--------------------------------|--------------------------------|
 
G|--------------------------------|--------------------------------|
D|--------------------------------|----------------0---0---0---0---|
A|--------------------------------|--------------0-----------------|
E|3-----------3-----------3-------|------------3-------------------|
 
G|------------------------5-------|--------------------5---3---2---|
D|--------------------------------|--------------------------------|
A|3-----------3-------------------|--------------------------------|
E|--------------------3-----------|--------------------------------|
 
[Verse] 
G|--------------------------------|--------------------------------|
D|--------------------------------|--------------------------------|
A|--------------------------------|--------------------------------|
E|3-----3-----3-------3---3-------|3-----3-----3-------3---3-------|
 
G|--------------------------------|--------5-5-----3-3-----2-2-----|
D|--------------------------------|--------------------------------|
A|3-----3-----3-------3---3-------|3-------------------------------|
E|--------------------------------|--------------------------------|
 
G|--------------------------------|--------------------------------|
D|--------------------------------|--------------------------------|
A|--------------------------------|--------------------3---3-------|
E|3-----3-----3-------3---3-------|3-----3-----3-------------------|
 
G|--------------------------------|--------------------------------|
D|--------------------------------|--------------------------------|
A|3-----3-----3---3-3-3-3-3-------|----1---3---3---3-3-3-3-3-------|
E|--------------------------------|3-------------------------------|
 
G|--------------------------------|--------------------------------|
D|--------------------------------|------------------------2-2-2-2-|
A|--------------------------------|----------------3---------------|
E|3-----3-----3-------3---3-------|3-----3-----3-------3-----------|
 
G|--------------------------------|--------------------------------|
D|--------------------------------|--------------------------------|
A|3-----------3-----------3-------|--------------------------------|
E|--------------------------------|--------------------------------|
 
[Bridge] 
G|--------------------------------|--------------------------------|
D|--------------------------------|--------------------------------|
A|--------------------------------|--------------------------------|
E|3-----3-----3-----3-----3-----3-|----3-----3-----3-----3---------|
 
G|--------------------------------|--------------------------------|
D|--------------------------------|--------------------------------|
A|3-----3-----3-----3-----3-----3-|--------------------------------|
E|--------------------------------|--------------------------------|
 
[Chorus] 
G|--------------------------------|--------------------------------|
D|--------------------------------|----------------0---0---0---0---|
A|--------------------------------|--------------0-----------------|
E|3-----------3-----------3-------|------------3-------------------|
 
G|--------------------------------|----5-----5-----5-----5---5-----|
D|--------------------------------|--------------------------------|
A|3-----------3-----------3-------|3-------3-----3-----3-----------|
E|--------------------------------|--------------------------------|
 
G|--------------------------------|--------------------------------|
D|--------------------------------|----------------0---0---0---0---|
A|--------------------------------|--------------0-----------------|
E|3-----------3-----------3-------|------------3-------------------|
 
G|------------------------5-------|--------------------5---3---2---|
D|--------------------------------|--------------------------------|
A|3-----------3-------------------|--------------------------------|
E|--------------------3-----------|--------------------------------|
 
G|--------------------------------|--------------------------------|
D|--------------------------------|------------------------0---2---|
A|--------------------------------|----------------3---------------|
E|3-----3-----3-------3---3-------|3-----3-----3-------3-----------|
 
G|--------------------------------|--------5-5-----3-3-----2-2-----|
D|--------------------------------|--------------------------------|
A|3-----3-----3-------3---3-------|3-------------------------------|
E|--------------------------------|--------------------------------|
 
G|--------------------------------|--------------------------------|
D|--------------------------------|------------------------0---2---|
A|--------------------------------|----------------3---------------|
E|3-----3-----3-------3---3-------|3-----3-----3-------3-----------|
 
G|--------------------------------|--------------------------------|
D|--------------------------------|--------------------------------|
A|3-----3-----3-------3---3-------|3-------------------------------|
E|--------------------------------|--------------------------------|
 
G|----------------0-2-0-----------|--------------------------------|
D|--------------------------------|--------------------------------|
A|--------------------------------|------------------0-------------|
E|3-----3-----3-----------3-------|3-----3-----3---3---3---3---3---|
 
G|----5---5---5-------5---5-------|----5-----5-----5---5---5-7-----|
D|--------------------------------|8-------------------------------|
A|3---------------3-3-------------|--------------------------------|
E|--------------------------------|--------8-----------------------|
 
[Outro] 
G|--------------------------------|--------------------------------|
D|--------------------------------|--------------------------------|
A|--------------------------------|------------------0-------------|
E|3-----3-----3---3---3---3-------|3-----3-----3---3---3---3---3---|
 
G|----5---5---5-------5---5-------|3-------------------------------|
D|--------------------------------|--------------------------------|
A|3-3-------------3---------------|--------3-------0---------------|
E|--------------------------------|----------------------3---1-----|
 
G|--------------------------------|--------------------------------|
D|--------------------------------|----0-----------0---0---0---2---|
A|--------------------------------|------------0-3-----------------|
E|3-----------3-----------3-------|3-------------------------------|
 
G|--------------------------------|----5-----5-----5-5-----5-5-----|
D|--------------------------------|--------------------------------|
A|3-----------3-----------3-------|3-------------------------------|
E|--------------------------------|--------------------------------|
 
G|--------------------------------|--------------------------------|
D|--------------------------------|----------------0---0---0---2---|
A|--------------------------------|------------0-3-----------------|
E|3-----------3-----------3-------|--------------------------------|
 
G|--------------------------------|--------2---5-----5-----2-------|
D|--------------------------------|----3---------------------------|
A|3-----------3-----------3-------|5---------------3---------------|
E|--------------------3-----------|--------------------------------|
 
G|--------------------------------|--------------------------------|
D|--------------------------------|----------------3---3---2---2---|
A|--------------------------------|--------------------------------|
E|3---3---3---3---3---3---3---3---|3---3---3---3-------------------|
 
G|--------------------------------|----5---5-----------5-------2---|
D|0-------------------------------|------------------------5-------|
A|----3---3-------3---------------|3---------------3---------------|
E|--------------------------------|--------------------------------|
 
G|0---0---0---0---0---0---0---0---|0---0---0---0---0---------------|
D|--------------------------------|--------------------3---2---0---|
A|--------------------------------|--------------------------------|
E|--------------------------------|--------------------------------|
 
G|--------------------------------|--------------------------------|
D|--------------------------------|--------------------------------|
A|3---3-----3-----3-------3-------|3---3-----3-----3-------3-------|
E|--------------------------------|--------------------------------|
 
G|--------------------------------|
D|--------------------------------|
A|--------------------------------|
E|3-------------------------------|

            
            
Suggest correction
Creating personal tab
Creating personal tab
You can edit any tab online and save it as your Personal.

You can edit, replace or remove any tab part or add personal notes – all changes will be seen only by you.

Personal tabs can be accessed anytime from any device, even offline.
Learn more »
Give kudos to tab author, rate the tab!
1 2 3 4 5
comments
print report bad tab
guest
You may want to rate the tab now too:
select rating
Wanna post a correction for this tab? Suggest correction