Oops, an error
Loading. Please wait.

I Hate Your Eyes tab

version 1
version 1

Whole song

Interactive

by Halifax
1,499 views 1 this week
2 commentsread comments
1 2 3 4 5
x 6
add to favorites
×
Save as Personal and add changes to this tab that will be seen only by you. Learn more ›
×
You can save this tab as Personal to edit and correct it or add notes. All changes will be seen only by you. Learn more »
launch autoscroll
font size
0
reset
how to read this tab
guitar tuner
edit
Autoscroll
slow
fast
+/-
esc
set tempo
stop
Author
-------------------------------------------------------------------------------
                            Halifax-I Hate Yor Eyes
-------------------------------------------------------------------------------
Tabbed by:Kevstar
Email:talk_tonight100@yahoo.co.uk

      This is a great song by a great new band, theres basically no tabs of any halifax
      around so hopefully later on i'll do some other songs aswell.

Tuning:  Eb Ab Db Gb Bb eb


   INTRO
eb|--o-o-o-o-o-o-o-o-o-o-o--o-o-o-o-o--o--o--o--o-o-o-o--o-o-o-o-o------------|
Bb|-5-5-5-7-4-4-4-4-9-9-9-10-7-7-7-9-10-10-10-12-9-9-9-12-7-7-7-7-------------|Repeat x2
Gb|---------------------------------------------------------------------------|
Db|---------------------------------------------------------------------------|
Ab|---------------------------------------------------------------------------|
Eb|---------------------------------------------------------------------------|

   VERSE    C             Eb           Ab            Bb             
eb|-------|-------------------------------------------------------------------|
Bb|-----#-|-------------------------------------------------------------------|
Gb|-------|-------------------------------------------------------------------| Verse x2
Db|-5-5-5/|-6-6-6-6--------------------2-2-2-2-------4-4-4-4---------5-5-5/---|
Ab|-3-3-3/|-4-4-4-4-etc.--2-2-2-2------0-0-0-0-etc.--2-2-2-2-etc.----3-3-3/---|
Eb|-------|---------------0-0-0-0-etc.----------------------------------------|
            (16th note mutes)

       # slide into the first beat of the verse 
        

   Chorus
     C       Absus2    Bb  
eb|----------0-0-0-0----------------------------------------------------------|
Bb|----------0-0-0-0----------------------------------------------------------|
Gb|--6--6----2-2-2-2---4-4-4-4---4-4-4-4--------------------------------------|
Db|--6--6----2-2-2-2---4-4-4-4---4-4-4-4--------repeat x 4--------------------|
Ab|--4--4----0-0-0-0---2-2-2-2---2-2-2-2--------------------------------------|
Eb|---------------------------------------------------------------------------|

  2nd verse 
   same as the first but let the first C ring on, then come in with the mutes on the Eb 

  2nd Chorus
    same as before 
  
   BreakDown= Chords used in the chorus x4(?)

   Solo= Chords used in the Chorus x4

    i cant be botherd to tab out the solo,(sorry) its just playing around in C minor/ Eb major  
   

   Interlude "Its up to you for this" 
eb|---------------------------------------------------------------------------|
Bb|---------------------------------------------------------------------------|
Gb|-6------------2------------------------------------------------------------|
Db|-6-let ring---2-------------repeat again-----------------------------------|
Ab|-4------------0-let ring---------------------------------------------------|
Eb|---------------------------------------------------------------------------|

eb|---------------------------------------------------------------------------|
Bb|---------------------------------------------------------------------------|
Gb|-6-6-------2-2-----------------2--------2-2--------------------------------|
Db|-6-6-------2-2-------4-4-------2--------2-2--------------------------------|
Ab|-4-4-etc,--0-0-etc.--4-4-------0--break-0-0--------------------------------|
Eb|---------------------2-2-etc-----------------------------------------------|
     16th mutes again


   "Come on angel lets talk this over"
eb|---------------------------------------------------------------------------|
Bb|---------------------------------------------------------------------------|
Gb|---------------------------------------------------------------------------|
Db|--6-6------9-9------2-2------2-2--(4)--------------------------------------|
Ab|--4-4------7-7------0-0------0-0--(2)--------------------------------------|
Eb|---------------------------------------------------------------------------|
        All mutes again

Last Chorus (same as before but theres a break somewhere in there.

 Thats basically it, Mail me if you really want the solo. THANX   

| /  slide up
| \  slide down
| h  hammer-on
| p  pull-off
| ~  vibrato
| +  harmonic
| x  Mute note
===============================================================================

            
            
Suggest correction
Creating personal tab
Creating personal tab
You can edit any tab online and save it as your Personal.

You can edit, replace or remove any tab part or add personal notes – all changes will be seen only by you.

Personal tabs can be accessed anytime from any device, even offline.
Learn more »
comments
print report bad tab
2 comments total.
0 reply
shortytwig 10 Feb 16, 2008 05:24 AM

You have the right rythem but its defiently not played in that key. good try tho

0 reply
cohen797 41 Jun 15, 2008 03:12 PM

in the corrus i think it should be like this:
eb|-------------0-0-0-0---------------------------------------------|
Bb|---------0---0-0-0-0---------------------------------------------|
Gb|--6--6---0---2-2-2-2---4-4-4-4---4-4-4-4-------------------------|
Db|--6--6---2---2-2-2-2---4-4-4-4---4-4-4-4--------repeat x 4-------|
Ab|--4--4---2---0-0-0-0---2-2-2-2---2-2-2-2-------------------------|
Eb|---------0-------------------------------------------------------|

guest
You may want to rate the tab now too:
select rating
Wanna post a correction for this tab? Suggest correction