Oops, an error
Loading. Please wait.

Our Revolution tab

version 3
version 3

Whole song

Interactive

by Halifax
666 views 1 this week
no commentswrite comment
1 2 3 4 5
1 last vote to show rating
add to favorites
×
Save as Personal and add changes to this tab that will be seen only by you. Learn more ›
×
You can save this tab as Personal to edit and correct it or add notes. All changes will be seen only by you. Learn more »
launch autoscroll
font size
0
reset
how to read this tab
guitar tuner
edit
Autoscroll
slow
fast
+/-
esc
set tempo
stop
Author
                               Artist: Halifax
                            Song: Our Revolution
                  Album: The Inevitability of a Strange World
----------------------------------------------------------------------------
Tabbed by: Sergio
E-mail: surge0116@bellsouth.net


Legend: h= Hammer on
        p= Pull off
        /= Slide Down
        \= Slide up
        ^= Bend
        ~= Vibrato
       ()= Ghost Note
        *= Pinch Harmonic
        @= Hold Note
       PM= Palm Mute
        != Indications/"Mini Helpers"


Dropped D Tuning: DADGBE
This is 100% correct.. I think


~~Intro
e |----------------------------------------------------------|
B |---------------3-3-3/5-5-6-5-6----------------------------|
G |---------------3-3-3/5-5-5-5-5----------------------------|
D |-5-------------3-3-3/5-5-5-5-5-----3--3-5-----------------|
A |-5-----------------------------3h5----3-5-----------------|
D |-5—3h4h5-3h4h5------------------------3-5—-8-5-8-5-0h3h5--|

                 x7
e |--------------v--------------------|
B |--5-5-5--3-3333333-5---------------|
G |--5-5-5--3-3333333-5---------------|
D |--5-5-5--3-3333333-5---------------|
A |--------------------------3*-------|
D |----------------------0h3----------|

e |-----------------------------------------------------------|
B |----------------3-3-3/5-5-6-5-6----------------------------|
G |----------------3-3-3/5-5-5-5-5----------------------------|
D |-5--------------3-3-3/5-5-5-5-5-----3--3-5-----------------|
A |-5------------------------------3h5----3-5-----------------|
D |-5--8-5-8-5-4h5------------------------3-5—-8-5-8-5-0h3h5--|

                 
e |----------------------|
B |--5-5-5--3-3333333-5--|
G |--5-5-5--3-3333333-5--|
D |--5-5-5--3-3333333-5--|
A |----------------------|
D |----------------------|





~~Verse 1   !!(So you don't have to count, P.M. 5 & 8 x14  & 10 x6)
e |--------------------------------------------------------|
B |--------------------------------------------------------|
G |--------------------------------------------------------|
D |-5------------------8------------------10---------------|
A |-5------------------8------------------10---------------|
D |-5--55555555555555--8--88888888888888--10--101010101010-|
     PM..............       ..............     . . . . . . 

e |-----------------------------------|
B |-----------------------------------|
G |-------5-5-------------------------|          ![Verse 1, x2]!
D |--3-3--5-5--5----------------------|
A |--3-3--3-3--5----------------------|
D |--3-3-------5-555555--8-5-8-5-0-3--|
                 ......



~~Pre-Chorus
Gt. 1
e |---------------------------------------------------------------------|
B |---------------------------------------------------------------------|
G |-12--121212121212\10--101010101010/14--141414141414\12--121212121212-|
D |---------------------------------------------------------------------|
A |-10--101010101010\8---8-8-8-8-8-8-/12--121212121212\10--101010101010-|
D |---------------------------------------------------------------------|
Gt. 2
e |---------------------------------------------------------------------|
B |---------------------------------------------------------------------|
G |-3---3-3-3-3-3--3/5---5-5-5-5-5-5------------------------------------|
D |-3---3-3-3-3-3--3/5---5-5-5-5-5-5-\-3--3-3-3---------5--5--5--5--5--5|
A |-1---1-1-1-1-1--1/3---3-3-3-3-3-3-\-3--3-3-3--5-p-3--5--5--5--5--5--5|
D |------------------------------------3--3-3-3---------5--5--5--5--5--5|


Gt. 1
e |----------------------------------------------------------------|
B |----------------------------------------------------------------|
G |-12--121212121212\10--101010101010/14--141414141414--14@@-\-----|
D |----------------------------------------------------------------|
A |-10--101010101010\8---8-8-8-8-8-8-/12--121212121212--12@@-\-----|
D |----------------------------------------------------------------|
Gt. 2
e |----------------------------------------------------------------|
B |----------------------------------------------------------------|
G |----------------------------------------------------------------|
D |-/8--8-8-8-8-8-8-8-8-8-8---/121212\10--101010101010--10@@-\-----|
A |-/8--8-8-8-8-8-8-8-8-8-8---/121212\10--101010101010--10@@-\-----|
D |-/8--8-8-8-8-8-8-8-8-8-8---/121212\10--101010101010--10@@-\-----|

Ok, the pre-chorus was pretty effing confusing to write. Guitar 2 is hard to hear 
and is very faint. But it is played with the same pace as Guitar 1


~~Chorus               
e |--------------------------------------------------|\
B |--------------------3--/5--5-6-5-6----------------| \
G |-----------3-33-333-3--/5--5-5-5-5----------------|  \
D |-5-55-555--3-33-333-3--/5--5-5-5-5----------------|   \
A |-5-55-555--1-11-111-------------------------------|    \
D |-5-55-555-----------------------------------------|     \
                                                            \
                                                            x2
e |--------------------------------------|-----------|      /
B |--------------------------------------|-----------|     /
G |--------------------3-33-333----------|-----------|    /
D |----3--3--5-55-555--3-33-333--3-33-333|333--------|   /
A |-3h5---3--5-55-555--1-11-111--3-33-333|333----5-3-|  /
D |-------3--5-55-555------------3-33-333|333--0-----| /

      On the 2nd time       e |------------------------------|
      before finishing      B |------------------------------|
      the song, cut to      G |------------------------------|
      this short "break",   D |-3-3--4--5--------------------|
      right before the      A |-3-3--4--5--------------------|
      2nd verse starts      D |-3-3--4--5--8-5-8-5-0h3h5-----|

                            e |----------------------------|
                            B |-3-3-3/5-6-5-6--------------|
                            G |-3-3-3/5-5-5-5--------------|
                            D |-3-3-3/5-5-5-5----3---3--5--|
                            A |---------------3h5----3--5--|
                            D |----------------------3--5--|
                                                        !!
                                                        !!
~~Verse 2                      !! - Same Note
e |!!--------------------------------------------------------------|
B |!!--------------------------------------------------------------|
G |!!--------------------------------------------------------------|
D |-5--------------5p3h5--8--------------8h10p8--10--101010101010--|
A |-5--------------5p3h5--8--------------8h10p8--10--101010101010--|
D |-5--55555555555-5p3h5--8--88888888888-8h10p8--10--101010101010--|
     PM...........           ...........             . . . . . .

e |-------------------------------------------|
B |-------------------------------------------|
G |-------5--5--------------------------------|
D |-3--3--5--5--5--5-5-5-5-5-5----------------|   ![Verse 2, x2]!
A |-3--3--3--3--5--5-5-5-5-5-5----------------|
D |-3--3--------5--5-5-5-5-5-5---8-5-8-5--3h4-|


     << After Verse 2, its Pre-Chorus, Chorus, then SOLO! >>



~~Solo               ! - Guitar Screech, Scratch, w/e you wanna call it
e |---------------------------------------------------------|
B |----------3~--------3~---------3-5-3---3-----------------|
G |------!---3~-5-3-5--3~-5-3-5---------5---5-3-5-3-----5*--|
D |------x\-----------------------------------------5-3-----|
A |-7*^--x\-------------------------------------------------|
D |------x\-------------------------------------------------|
                                PM. . . . . . . . . . .
 
e |------------------------------------------------------------------------|
B |------------------------------------------------------------------------|
G |-/14-14-12h10--/14-14-12h10----12-12^-12^12^-12^12^12^--12h10--12h10--12|
D |-------------12--------------12------------------------------12-----12--|
A |------------------------------------------------------------------------|
D |------------------------------------------------------------------------|

                                 v(Tapping part)          v(Killswitch part)
e |-------------------------------------------------------13^--------------|
B |-/15--/13---15p13p11-------13p8h11-x8---18p8h11-x4-18@------------------|
G |--------------------12~-------------------------------------------------|
D |------------------------x\----------------------------------------------|
A |------------------------x\----------------------------------------------|
D |------------------------x\----------------------------------------------|



<<"Hell... Yeah..." Drum / Bass part + Dudes screaming>>



~~Final Chorus for GUITAR 1!! (Gt.2 plays the regular chorus riff)
e |-------------------------------------------|
B |-------------------------------------------|
G |-------------------------------------------|
D |-------------8------------------8----------|
A |-10---10-8-10--10-8-10---10-8-10--10-8-10--|
D |-------------------------------------------|!!!!

e |----------------------------------|       !!!! - play these two riffs x2
B |----------------------------------|
G |----------------------------------|
D |----------8--------8--------8-----|!!!!          
A |---10-8-10--10-8-10--10-8-10--10--|
D |----------------------------------|

e |-------------------------------------------|
B |-------------------------------------------|
G |------------10----------------10-----------|
D |-12---121012---121012---121012---121012----|
A |-------------------------------------------|
D |-------------------------------------------|

e |-----------------------------------|
B |-----------------------------------|
G |-------10------10------10----------|
D |-121012--121012--121012--12--------|          
A |-----------------------------------|
D |-----------------------------------|

e |---------------------------------------------------------------|
B |-----------------------------------------------10--10--11-12\--|
G |------------10----------------10-------------------------------|
D |-12---121012---121012---121012---121012---12\------------------|
A |---------------------------------------------------------------|
D |---------------------------------------------------------------|


~~Outro
e |-----------------------------------------------|
B |----------------3-3-3/5-6-5-6------------------|
G |----------------3-3-3/5-5-5-5------------------|
D |----------------3-3-3/5-5-5-5-----3---3---5\---|
A |-------------------------------3h5----3---5\---|
D |-8-5-8-5-0h3h5------------------------3---5\---|


                             ~~At end, Gt. 1
                             e |----------------|
                             B |-----6----------|
                             G |--5h7-----------|
                             D |---------3-4-5\-|
                             A |----------------|
                             D |----------------|


This took for about 4 hours. I'm pooped. Hopefully someone wants to learn my 
version of the song lol.

            
            
Suggest correction
Creating personal tab
Creating personal tab
You can edit any tab online and save it as your Personal.

You can edit, replace or remove any tab part or add personal notes – all changes will be seen only by you.

Personal tabs can be accessed anytime from any device, even offline.
Learn more »
Give kudos to tab author, rate the tab!
1 2 3 4 5
comments
print report bad tab
guest
You may want to rate the tab now too:
select rating
Wanna post a correction for this tab? Suggest correction