Oops, an error
Loading. Please wait.

Out Of Touch bass

version 1
version 1

Whole song

Interactive

3,032 views 33 this week
no commentswrite comment
1 2 3 4 5
x 5
add to favorites
×
Save as Personal and add changes to this tab that will be seen only by you. Learn more ›
×
You can save this tab as Personal to edit and correct it or add notes. All changes will be seen only by you. Learn more »
launch autoscroll
font size
0
reset
guitar tuner
edit
Autoscroll
slow
fast
+/-
esc
set tempo
stop
Author
Difficulty
Out Of Touch
Although this single by Daryl Hall & John Oats topped the US Billboard
Charts in late 1984, it only reached number 48 in the UK.
Tab by bass50611. Not exact as original but close. Note all the pause dots
And syncopation in verse and pre-chorus. Comments is bass254@btinternet.com 

Intro:        [     Play This x4         ]
                  .          .          .
G|------------|---------------------------
D|-DRUM START-|--------------5------------
A|---4 BARS---|------------5--------------
E|------------|-0-1-------------5---3---5-

     .          .      .
G|-----------------------
D|--------------5--------
A|------------5----------
E|-0-1-----------------5-

Verse:
   .        .           .         .      .        .          .
G|------------------------------------------------------------------------
D|-5------3-5---------------------3----3-5------3-5------------------3----
A|-------5------------555-----5-5--------------5-----------555----5-5-----
E|----------------011----------------------------------011-------------33-

Pre-Chorus:                 .                             .
G|----------------------------------------------------------
D|-------------7--7-5---333-2-------------------------------
A|-3-33---3-5-7-----------------5-5--------3-33---1---0---5-
E|-----------------------------------3-33-------------------

Chorus 1:
   .       .           .     .        .          .     .       .   (Break)
G|---------------------------------------------------------------------
D|---------5--------------------------5------------------------5-------
A|--------5--------------------------5------------------------5--------
E|-1-----------5---3---5---0-1-----------5---3---5---0-1-------------5-

Repeat Verse & Pre-Chorus:

Chorus 2:
   .       .           .     .      .           .    .       .          .
G|------------------------------------------------------------------------
D|---------5------------------------5------------------------5------------
A|--------5------------------------5------------------------5-------------
E|-1-----------5---3---5---0-1----------5---3---5---0-1---------5---3---5-

     .     [Pause]
G|----------
D|----------
A|--------5-
E|-0-1------

Bridge:  (Play Quavers)
G|--------------------------------------------------------------------
D|--------------------------------------------------------------------
A|-5-5-5-5-5-5-5-5--5-5-5-5-5-5-5-5--5-5-5-5-5-5-5-5--5-5-5-5-5-5-5-5-
E|--------------------------------------------------------------------

G|-------------------------------------------------------7-5-------
D|----------------------------------------------------------7-5----
A|-5-5-5-5-5-5-5-5--5-5-5-5-5-5-5-5--5-5-5-5-5-5-5-5--5-5------7-5-
E|-----------------------------------------------------------------
                                                                       .
G|-----------------------------------------------------------------------
D|-----------------------------------------------------------------------
A|-5-5-5-5-5-5-5-5--5-5-5-5-5-5-5-5--5-5-5-5-5-5-5-5--5-5-5-5-5-5-5----8-
E|-----------------------------------------------------------------------

      .          .
G|-----------------
D|----5------------
A|---5-------------
E|-------5---3---5-

Chorus 3:   (Repeat This To Fade/End)
    .          .          . 
G|---------------------------
D|--------------5------------
A|------------5--------------
E|-0-1-------------5---3---5-


            
            
Suggest correction
Creating personal tab
Creating personal tab
You can edit any tab online and save it as your Personal.

You can edit, replace or remove any tab part or add personal notes – all changes will be seen only by you.

Personal tabs can be accessed anytime from any device, even offline.
Learn more »
comments
print report bad tab
guest
You may want to rate the tab now too:
select rating
Wanna post a correction for this tab? Suggest correction