Oops, an error
Loading. Please wait.

Let The Hammer Fall tab

version 2
version 2

Whole song

Interactive

1,357 views 1 this week
no commentswrite comment
1 2 3 4 5
3 more votes to show rating
add to favorites
×
Save as Personal and add changes to this tab that will be seen only by you. Learn more ›
×
You can save this tab as Personal to edit and correct it or add notes. All changes will be seen only by you. Learn more »
launch autoscroll
font size
0
reset
how to read this tab
guitar tuner
edit
Autoscroll
slow
fast
+/-
esc
set tempo
stop
#----------------------------------PLEASE NOTE---------------------------------#
#This file is the author's own work and represents their interpretation of the #
#song. You may only use this file for private study, scholarship, or research. #
#------------------------------------------------------------------------------#

LET THE HAMMER FALL
As recorded by HammerFall
(From the 1998 Album LEGACY OF KINGS)


Transcribed by Ivan - (peekaboo104@hotmail.com)

 Words and Music by HF

 

Gtr I (Eb Ab Db Gb Bb Eb) - 'Untitled'
Gtr II (Eb Ab Db Gb Bb Eb) - 'Untitled'
Gtr III (Eb Ab Db Gb Bb Eb) - 'Untitled'


 Intro
  Q=142
             A5    C5    D5    Eb5   D5    C5
 2/4        4/4
  Gtr I
               PM|   PM|   PM    PM|   PM|   PM
  Q   Q      E E E E E E E E   E E E E E E E E
|---------||-----------------|-----------------|
|---------||-----------------|-----------------|
|---------||-2-----5-----7---|-8-----7-----5---|
|---------||-2-----5-----7---|-8-----7-----5---|
|----12\--||---0-0---0-0---0-|---0-0---0-0---0-|
|---------||-----------------|-----------------|


  A5    C5    D5    Eb5   D5    C5
    PM|   PM|   PM    PM|   PM|
  E E E E E E E E   E E E E E E E E
|-----------------|------------------|
|-----------------|------------------|
|-2-----5-----7---|-8-----7-----5-0--|
|-2-----5-----7---|-8-----7-----5-0--|
|---0-0---0-0---0-|---0-0---0-0------|
|-----------------|------------------|


  A5    C5    D5    Eb5   D5    C5    A5    C5    D5    G     C5/G   G
    PM|   PM|   PM    PM|   PM|   PM    PM|   PM|   PM
  E E E E E E E E   E E E E E E E E   E E E E E E E E   E E E E +Q   Q
|-----------------|-----------------|-----------------|-----------------|
|-----------------|-----------------|-----------------|-----------------|
|-2-----5-----7---|-8-----7-----5---|-2-----5-----7---|-4-4-4-5-(5)--4--|
|-2-----5-----7---|-8-----7-----5---|-2-----5-----7---|-5-5-5-5-(5)--5--|
|---0-0---0-0---0-|---0-0---0-0---0-|---0-0---0-0---0-|-----------------|
|-----------------|-----------------|-----------------|-----------------|


  A5    C5    D5    Eb5   D5    C5    A5    C5    D5    Eb5   D5    C5
    PM|   PM|   PM    PM|   PM|   PM    PM|   PM|   PM    PM|   PM|
  E E E E E E E E   E E E E E E E E   E E E E E E E E   E E E E E E E E
|-----------------|-----------------|-----------------|-----------------|
|-----------------|-----------------|-----------------|-----------------|
|-2-----5-----7---|-8-----7-----5---|-2-----5-----7---|-8-----7-----5-0-|
|-2-----5-----7---|-8-----7-----5---|-2-----5-----7---|-8-----7-----5-0-|
|---0-0---0-0---0-|---0-0---0-0---0-|---0-0---0-0---0-|---0-0---0-0-----|
|-----------------|-----------------|-----------------|-----------------|


  A5    C5    D5    Eb5   D5    C5    G    C5   G/B  Bb5       F/Bb
    PM|   PM|   PM    PM|   PM|   PM
  E E E E E E E E   E E E E E E E E   Q.   Q.   Q    Q.   Q.   Q
|-----------------|-----------------|--------------|--------------||
|-----------------|-----------------|--------------|--------------||
|-2-----5-----7---|-8-----7-----5---|-4----5----4--|-3----3----2--||
|-2-----5-----7---|-8-----7-----5---|-5----5----5--|-3----3----3--||
|---0-0---0-0---0-|---0-0---0-0---0-|-5----3----2--|-1----1----1--||
|-----------------|-----------------|-3------------|--------------||


  (D)
 4/4
  Gtr I
  Q   q   E E E E   Q   E E E E E  E
|-----------------|------------------|
|-----3---5-6---8-|-----6---5-6---10-|
|-----2---2-2---5-|-----3---3-3----7-|
|-----------------|------------------|
|-----------------|------------------|
|-----------------|------------------|
|
| Gtr II
| PM----------------------------------
| E E E E E E E E   E E E E E E E  E
|-----------------|------------------|
|-----------------|------------------|
|-----------------|------------------|
|-0-0-0-0-0-0-0-0-|-0-0-0-0-0-0-0--0-|
|-----------------|------------------|
|-----------------|------------------|


  Q   E E E E E E   +Q    +E  E +H
|-----------------|-------------------------|
|-----8---6-5---6-|-(6)---(6)-3-(3)---------|
|-----5---5-5---3-|-(3)---(3)-0-(0)---------|
|-----------------|-------------------------|
|-----------------|-------------------------|
|-----------------|-------------------------|
|
|-------------------------------|
| E E E E E E E E    E  E  E  E  E  E +Q
|-----------------|-------------------------|
|-----------------|-------------------------|
|-----------------|-------------------------|
|-0-0-0-0-0-0-0-0-|--0--0--0--0--0--x-(x)\--|
|-----------------|-----------------x-(x)\--|
|-----------------|-------------------------|


  (D)                                                            C5
  PM-----------------------------------------------------------|
  E E E E E E E E   E E E E E E E  E   E E E E E E E E    E  E E E +H
|-----------------|------------------|-----------------|------------------||
|-----------------|------------------|-----------------|------------------||
|-----------------|------------------|-----------------|---------5-(5)----||
|-0-0-0-0-0-0-0-0-|-0-0-0-0-0-0-0--0-|-0-0-0-0-0-0-0-0-|--0--0-0-5-(5)----||
|-----------------|------------------|-----------------|---------3-(3)----||
|-----------------|------------------|-----------------|------------------||
|
| Q   q   E E E E   Q   E E E E E  E   Q   E E E E E E   +Q.     E +H
|-----------------|------------------|-----------------|------------------||
|-----3---5-6---8-|-----6---5-6---10-|-----8---6-5---6-|-(6)-----8-(8)----||
|-----2---2-2---5-|-----3---3-3----7-|-----5---5-5---3-|-(3)-----5-(5)----||
|-----------------|------------------|-----------------|------------------||
|-----------------|------------------|-----------------|------------------||
|-----------------|------------------|-----------------|------------------||


 Pre-Verse
  (D)                                               Bb5         G5
  PM----------------------------------------------|
  E E E E E E E E   E E E E E E E E   E E E E E E E  E    +Q.   E +H
|-----------------|-----------------|------------------|-----------------|
|-----------------|-----------------|------------------|-----------------|
|-----------------|-----------------|----------------3-|--(3)------------|
|-0-0-0-0-0-0-0-0-|-0-0-0-0-0-0-0-0-|-0-0-0-0-0-0-0--3-|--(3)---5-(5)----|
|-----------------|-----------------|----------------1-|--(1)---5-(5)----|
|-----------------|-----------------|------------------|--------3-(3)----|
|
| PM----------------------------------------------|
| E E E E E E E E   E E E E E E E E   E E E E E E E  E    +Q.   E +H
|-----------------|-----------------|------------------|-----------------|
|-----------------|-----------------|------------------|-----------------|
|-----------------|-----------------|---------------10-|-(10)---7-(7)----|
|-0-0-0-0-0-0-0-0-|-0-0-0-0-0-0-0-0-|-0-0-0-0-0-0-0--8-|--(8)---5-(5)----|
|-----------------|-----------------|------------------|-----------------|
|-----------------|-----------------|------------------|-----------------|


  (D)                                               Bb5         C5
  PM----------------------------------------------|
  E E E E E E E E   E E E E E E E E   E E E E E E E  E    +Q.    E  +H
|-----------------|-----------------|------------------|-------------------||
|-----------------|-----------------|------------------|-------------------||
|-----------------|-----------------|----------------3-|--(3)----5--(5)----||
|-0-0-0-0-0-0-0-0-|-0-0-0-0-0-0-0-0-|-0-0-0-0-0-0-0--3-|--(3)----5--(5)----||
|-----------------|-----------------|----------------1-|--(1)----3--(3)----||
|-----------------|-----------------|------------------|-------------------||
|
| PM----------------------------------------------|
| E E E E E E E E   E E E E E E E E   E E E E E E E  E    +Q.    E  +H
|-----------------|-----------------|------------------|-------------------||
|-----------------|-----------------|------------------|-------------------||
|-----------------|-----------------|---------------10-|-(10)---12-(12)----||
|-0-0-0-0-0-0-0-0-|-0-0-0-0-0-0-0-0-|-0-0-0-0-0-0-0--8-|--(8)---10-(10)----||
|-----------------|-----------------|------------------|-------------------||
|-----------------|-----------------|------------------|-------------------||


   1st, 2nd and 3rd Verses
    $
    (D)                                                Bb5       G5
    PM|   PM    PM    PM|   PM    PM     PM|   PM
    E E E E E E E E   E E E E E E E  E   E E E E E E E E   +Q.   E +H
||------------------|------------------|-----------------|----------------|
||o-----3---5-6---8-|-----6---5-6---10-|-----8---6-5-----|----------------|
||------2---2-2---5-|-----3---3-3----7-|-----5---5-5---3-|-(3)------------|
||--0-0---0-----0---|-0-0---0-----0----|-0-0---0-----0-3-|-(3)---5-(5)----|
||o-----------------|------------------|---------------1-|-(1)---5-(5)----|
||------------------|------------------|-----------------|-------3-(3)----|
|
|   PM|   PM    PM    PM|   PM    PM     PM|   PM
|   E E E E E E E E   E E E E E E E  E   E E E E E E E E   +Q.   E +H
||------------------|------------------|-----------------|----------------|
||o-----3---5-6---8-|-----6---5-6---10-|-----8---6-5---6-|-(6)------------|
||------2---2-2---5-|-----3---3-3----7-|-----5---5-5---3-|-(3)---7-(7)----|
||--0-0---0-----0---|-0-0---0-----0----|-0-0---0-----0---|-------5-(5)----|
||o-----------------|------------------|-----------------|----------------|
||------------------|------------------|-----------------|----------------|


  (D)                                                Bb5       C5
  PM|   PM    PM    PM|   PM    PM     PM|   PM
  E E E E E E E E   E E E E E E E  E   E E E E E E E E   +Q.   E +H
|-----------------|------------------|-----------------|----------------||
|-----3---5-6---8-|-----6---5-6---10-|-----8---6-5-----|----------------||
|-----2---2-2---5-|-----3---3-3----7-|-----5---5-5---3-|-(3)---5-(5)----||
|-0-0---0-----0---|-0-0---0-----0----|-0-0---0-----0-3-|-(3)---5-(5)----||
|-----------------|------------------|---------------1-|-(1)---3-(3)----||
|-----------------|------------------|-----------------|----------------||
|
| PM|   PM    PM    PM|   PM    PM     PM|   PM
| E E E E E E E E   E E E E E E E  E   E E E E E E E E   +Q.   E +H
|-----------------|------------------|-----------------|----------------||
|-----3---5-6---8-|-----6---5-6---10-|-----8---6-5---6-|-(6)---8-(8)----||
|-----2---2-2---5-|-----3---3-3----7-|-----5---5-5---3-|-(3)---5-(5)----||
|-0-0---0-----0---|-0-0---0-----0----|-0-0---0-----0---|----------------||
|-----------------|------------------|-----------------|----------------||
|-----------------|------------------|-----------------|----------------||


 Chorus
    E5                DsusD                     C/E            D
  PM    PM    PM    PM  PM              PM    PM      PM     PM
  E E E E E E E E   E E E E +H          E E E E  E  E E  E   E E H.
|-----------------|-------------------|--------------------|------------------|
|-----------------|---8---7-(7)-------|--------------------|---7-7------------|
|---9-9---9-9---9-|---7---7-(7)-------|---9-9----9--9----9-|---7-7------------|
|---9-9---9-9---9-|-------------------|---9-9---10-10---10-|------------------|
|-7-7-7-7-7-7-7-7-|-7---7-------------|-7-7-7-7--7--7-7--7-|-7----------------|
|-----------------|-------------------|--------------------|------------------|
|
| PM    PM    PM    PM  PM   PM---------|     PM      PM     PM     PM------|
| E E E E E E E E   E E E E  E  E E E   E E E E  E  E E  E   E E E  E E E E E
|-----------------|-------------------|--------------------|------------------|
|-----------------|---8---7-----------|--------------------|---7-7------------|
|---9-9---9-9---9-|---7---7-----------|---9-9----9--9----9-|---7-7------------|
|---9-9---9-9---9-|-------------------|---9-9---10-10---10-|------------------|
|-7-7-7-7-7-7-7-7-|-7---7----5--5-5-5-|-7-7-7-7--7--7-7--7-|-7------5-5-5-5-5-|
|-----------------|-------------------|--------------------|------------------|


    F#5                    Esus4E
  PM      PM      PM     PM   PM
  E  E  E E  E  E E  E   E  E E E +H
|----------------------|--------------------|
|----------------------|---10---9-(9)-------|
|---11-11---11-11---11-|----9---9-(9)-------|
|---11-11---11-11---11-|--------------------|
|-9--9--9-9--9--9-9--9-|-9----9-------------|
|----------------------|--------------------|
|
| PM      PM      PM     PM   PM   PM--------
| E  E  E E  E  E E  E   E  E E E  E  E E E
|----------------------|--------------------|
|----------------------|---10---9-----------|
|---11-11---11-11---11-|----9---9-----------|
|---11-11---11-11---11-|--------------------|
|-9--9--9-9--9--9-9--9-|-9----9----7--7-7-7-|
|----------------------|--------------------|


    F#5             Esus4  E
  PM      PM      PM
  E  E  E E  E  E E  E   E E E E H
|----------------------|--------------||
|-------------------10-|---9-9--------||
|---11-11---11-11----9-|---9-9--------||
|---11-11---12-12------|---x-x--------||
|-9--9--9-9--9--9-9----|---7-7--------||
|----------------------|--------------||
|
|-|       PM      PM
| E  E  E E  E  E E  E   E E E E H
|----------------------|--------------||
|-------------------10-|---9-9--------||
|---11-11---11-11----9-|---9-9--------||
|---11-11---12-12------|---x-x--------||
|-9--9--9-9--9--9-9----|---7-7--------||
|----------------------|--------------||


  1.
                                                               To Coda
  A5    C5    D5    Eb5   D5    C5    A5    C5    D5    Eb5   D5    C5G5
  Gtrs I, II
    PM|   PM|   PM    PM|   PM|   PM    PM|   PM|   PM    PM|   PM|
  E E E E E E E E   E E E E E E E E   E E E E E E E E   E E E E E E E E
|-----------------|-----------------|-----------------|-----------------|
|-----------------|-----------------|-----------------|-----------------|
|-2-----5-----7---|-8-----7-----5---|-2-----5-----7---|-8-----7-----5-0-|
|-2-----5-----7---|-8-----7-----5---|-2-----5-----7---|-8-----7-----5-0-|
|---0-0---0-0---0-|---0-0---0-0---0-|---0-0---0-0---0-|---0-0---0-0-----|
|-----------------|-----------------|-----------------|-----------------|


  A5    C5    D5    Eb5   D5    C5    G    Gsus4G5   Fsus4     F
    PM|   PM|   PM    PM|   PM|   PM
  E E E E E E E E   E E E E E E E E   Q.   Q.   Q    Q.   Q.   Q
|-----------------|-----------------|--------------|---------------||
|-----------------|-----------------|--------------|--------------o||
|-2-----5-----7---|-8-----7-----5---|-4----5----0--|-3----3----2---||
|-2-----5-----7---|-8-----7-----5---|-5----5----0--|-3----3----3---||
|---0-0---0-0---0-|---0-0---0-0---0-|--------------|--------------o||
|-----------------|-----------------|--------------|---------------||


  2.
  A5
  W          Q.   Q.   Q
|----------|--------------||
|----------|--------------||
|-2--------|-2----2----2--||
|-2--------|-2----2----2--||
|-0--------|-0----0----0--||
|----------|--------------||


 Guitar Solo - S.Elmgren
  B5
   ~~~
   Q.      E  E  E  E  E
|------------------------|
|-12---------12----14-15-|
|---------11----11-------|
|------------------------|
|------------------------|
|------------------------|
|
| Gtr II
|  ~~~
|  Q.      E  E  E  E  E
|------------------------|
|------------------------|
|-------------------6--7-|
|--9----------9----------|
|----------9-----9-------|
|------------------------|
|
| Gtr III
|     PM--------------|
|  E  E E  E  E  E  E  E
|------------------------|
|------------------------|
|--4---------------------|
|--4---------------------|
|--2--2-2--2--2--2--2--2-|
|------------------------|


         G5                                     A5
                                   ~~~~           ~~~~
   a      +E   +S       +S   +S   +S   E  a      +E   +E   +E   S  S
|--------------------------------------------------------------------|
|-17b19==(17)r(17)b19==(17)-(17)r(17)-15-15b17==(15)-(15)r(15)-15p14-|
|--------------------------------------------------------------------|
|--------------------------------------------------------------------|
|--------------------------------------------------------------------|
|--------------------------------------------------------------------|
|
|                                  ~~~~           ~~~~
|  a      +E   +S       +S   +S   +S   E  a      +E   +E   +E   S  S
|--------------------------------------------------------------------|
|--------------------------------------------------------------------|
|--9b11===(9)r=(9)b11===(9)--(9)r=(9)--7--7b9====(7)--(7)r=(7)--7p=6-|
|--------------------------------------------------------------------|
|--------------------------------------------------------------------|
|--------------------------------------------------------------------|
|
|               PM--------------------|                PM------|
|          E    E             E        E          E    E    E   E
|--------------------------------------------------------------------|
|--------------------------------------------------------------------|
|-------------------------------------------------2------------------|
|----------5--------------------------------------2------------------|
|----------5--------------------------------------0----0----0---0----|
|----------3----3-------------3--------3-----------------------------|


  B5
   ~~~            ~~~~
   Q.      a     +H         S  S
|---------17b19-(17)-------17-19-|
|-15-----------------------------|
|--------------------------------|
|--------------------------------|
|--------------------------------|
|--------------------------------|
|
|  ~~~
|  Q.             E  H
|--------------------------------|
|--------------------------------|
|--7-----------------------------|
|--------------------------------|
|--------------------------------|
|--------------------------------|
|
|     PM|            PM----|
|  E  E E         E  E E E  E
|--------------------------------|
|--------------------------------|
|--4--------------4--------------|
|--4--------------4--------------|
|--2--2-2---------2--2-2-4--5----|
|--------------------------------|


  A5
   S  S  S  S  S  S  S  S  S  S  S  S  S  S  S  S
|-21-19-17-15-17-19-17-15-14-15-17-15-14----------|
|----------------------------------------17-15-14-|
|-------------------------------------------------|
|-------------------------------------------------|
|-------------------------------------------------|
|-------------------------------------------------|
|
|  W
|-------------------------------------------------|
|-------------------------------------------------|
|-------------------------------------------------|
|-------------------------------------------------|
|-------------------------------------------------|
|-------------------------------------------------|
|
|        PM---------------------------------|
|  E     E     E     E     E     E     E     E
|-------------------------------------------------|
|-------------------------------------------------|
|--2----------------------------------------------|
|--2----------------------------------------------|
|--0-----0-----0-----0-----0-----0-----5-----4----|
|-------------------------------------------------|


  B5
   S  S  S  S  S  S  S  S  S  S  S  S  S  S  S  S
|-19p14----14-19p14----------------14-19p14----14-|
|-------15----------15----------15----------15----|
|----------------------16----16-------------------|
|-------------------------16----------------------|
|-------------------------------------------------|
|-------------------------------------------------|
|
|  S  S  S  S  S  S  S  S  S  S  S  S  S  S  S  S
|-14p10----10-14p10----------------10-14p10----19-|
|-------12----------12----------12----------12----|
|----------------------11----11-------------------|
|-------------------------12----------------------|
|-------------------------------------------------|
|-------------------------------------------------|
|
|        PM---------------------------------|
|  E     E     E     E     E     E     E     E
|-------------------------------------------------|
|-------------------------------------------------|
|--4----------------------------------------------|
|--4----------------------------------------------|
|--2-----2-----2-----2-----2-----2-----2-----2----|
|-------------------------------------------------|


  G5                      A5
   S  S  S  S  S  S  S  S  S  S  S  S  S  S  S  S
|-17p15----15-19p15----15-19p17----17-21p17----17-|
|-------15----------15----------17----------17----|
|-------------------------------------------------|
|-------------------------------------------------|
|-------------------------------------------------|
|-------------------------------------------------|
|
|  S  S  S  S  S  S  S  S  S  S  S  S  S  S  S  S
|-12p10----10-15p10----10-15p12----12-17p12----12-|
|-------10----------12----------14----------14----|
|-------------------------------------------------|
|-------------------------------------------------|
|-------------------------------------------------|
|-------------------------------------------------|
|
|        PM---------|            PM---------|
|  E     E     E     E     E     E     E     E
|-------------------------------------------------|
|-------------------------------------------------|
|--------------------------2----------------------|
|--5-----------------------2----------------------|
|--5-----------------------0-----0-----0-----0----|
|--3-----3-----3-----3----------------------------|


         G5
                                        ~~~
   a      +E   +E       +S   +S   S  S  Q.      S  S
|-22b24==(22)r(22)b24==(22)r(22)-22-21-19------19-21-|
|----------------------------------------------------|
|----------------------------------------------------|
|----------------------------------------------------|
|----------------------------------------------------|
|----------------------------------------------------|
|
|          W
|----------------------------------------------------|
|----------------------------------------------------|
|----------------------------------------------------|
|----------------------------------------------------|
|----------------------------------------------------|
|----------------------------------------------------|
|
|               PM-----|                PM-----|
|          E    E        E        E     E  E E  E
|----------------------------------------------------|
|----------------------------------------------------|
|----------------------------------------------------|
|----------5----------------------5------------------|
|----------5----------------------5------------------|
|----------3----3--------3--------3-----3--3-3--3----|


  A5
                                       |------5------|
   S  S  S  S  S  S  S  S  S  S  S  S  S  S  S    S  S
|-22-19-17-19-21-17-15-17-19-17-15-14------------------|
|-------------------------------------17-15-17---15-14-|
|------------------------------------------------------|
|------------------------------------------------------|
|------------------------------------------------------|
|------------------------------------------------------|
|
|  W
|------------------------------------------------------|
|------------------------------------------------------|
|------------------------------------------------------|
|------------------------------------------------------|
|------------------------------------------------------|
|------------------------------------------------------|
|
|        PM---|            PM---|              PM
|  E     E     E     E     E     E     E       E
|------------------------------------------------------|
|------------------------------------------------------|
|--2-----------------2-----------------2---------------|
|--2-----------------2-----------------2---------------|
|--0-----0-----0-----0-----0-----0-----0-------0-------|
|------------------------------------------------------|


  D5
   ~~~
   Q.      E  E  E  E  E
|------------------------|
|-15---------15-17-18-20-|
|---------14-------------|
|------------------------|
|------------------------|
|------------------------|
|
|  ~~~
|  Q.      E  E  E  E  E
|------------------------|
|------------------------|
|----------------9-10-12-|
|-12---------12----------|
|---------12-------------|
|------------------------|
|
|     PM--------------|
|  E  E E  E  E  E  E  E
|------------------------|
|------------------------|
|--7---------------------|
|--7---------------------|
|--5--5-5--5--5--5--5--5-|
|------------------------|


         Bb5                        C5
   a      +E   +E       +S   +S   E  E      +E   +E   S  S
|----------------------------------------------------------|
|-20b22==(20)r(20)b22==(20)r(20)-18-18b20==(18)r(18)-18-17-|
|----------------------------------------------------------|
|----------------------------------------------------------|
|----------------------------------------------------------|
|----------------------------------------------------------|
|
|          ~~~~~~~~~~~~~~~~~~~~~~~~~~~~~~~~
|          H                         H
|----------------------------------------------------------|
|----------------------------------------------------------|
|---------10------------------------12---------------------|
|----------------------------------------------------------|
|----------------------------------------------------------|
|----------------------------------------------------------|
|
|               PM---------------|           PM------|
|          E    E        E        E  E       E    E   E
|----------------------------------------------------------|
|----------------------------------------------------------|
|----------3-------------------------5---------------------|
|----------3-------------------------5---------------------|
|----------1----1--------1--------1--3-------3----3---3----|
|----------------------------------------------------------|


  D5                                  Bb5
   ~~~~~~~~~~        ~~~~                                 ~~
   Q     +E   E     +H           a     +Q.      Q    Q    E
|------------20b22-(20)-------|-22b25-(22)-----22---18---17-|
|-18----(18)------------------|-----------------------------|
|-----------------------------|-----------------------------|
|-----------------------------|-----------------------------|
|-----------------------------|-----------------------------|
|-----------------------------|-----------------------------|
|
|  ~~~
|  Q.         E      H                  W
|-----------------------------|-----------------------------|
|-----------------------------|-----------------------------|
|-10--------------------------|-----------------------------|
|-----------------------------|-----------------------------|
|-----------------------------|-----------------------------|
|-----------------------------|-----------------------------|
|
|     PM|            PM-----|              PM------------|
|  E  E   E   E      E  E E E           E  E E  E E  E E  E
|-----------------------------|-----------------------------|
|-----------------------------|-----------------------------|
|--7----------7---------------|---------3-------------------|
|--7----------7---------------|---------3--------------2--3-|
|--5--5---5---5------5--5-7-8-|---------1--1-1--1-1--1------|
|-----------------------------|-----------------------------|


  D5
    ~~~~
   +Q.      E  E  E  E  E
|-(17)--------------------|
|-------------15----17-18-|
|----------14----14-------|
|-------------------------|
|-------------------------|
|-------------------------|
|
|   Q    E  E  E  E  E  E
|-------------------------|
|-------------------------|
|--------------------9-10-|
|-------------12----------|
|----------12----12-------|
|-------------------------|
|
|      PM--------------|
|   E  E E  E  E  E  E  E
|-------------------------|
|-------------------------|
|---7---------------------|
|---7---------------------|
|---5--5-5--5--5--5--5--5-|
|-------------------------|


         Bb5                        C5
   a      +E   +E       +S   +S   E  E      +E   +E   +S   S
|------------------------------------------------------------|
|-20b22==(20)r(20)b22==(20)r(20)-18-18b20==(18)-(18)r(18)p17-|
|------------------------------------------------------------|
|------------------------------------------------------------|
|------------------------------------------------------------|
|------------------------------------------------------------|
|
|          ~~~~~~~~~~~~~~~~~~~~~~~~~~~~~~~~
|          H                         H
|------------------------------------------------------------|
|------------------------------------------------------------|
|---------10------------------------12-----------------------|
|------------------------------------------------------------|
|------------------------------------------------------------|
|------------------------------------------------------------|
|
|               PM---------------|           PM------|
|          E    E        E        E  E       E    E    E
|------------------------------------------------------------|
|------------------------------------------------------------|
|----------3-------------------------5-----------------------|
|----------3-------------------------5-----------------------|
|----------1----1--------1--------1--3-------3----3----3-----|
|------------------------------------------------------------|


  Bb5
   ~~~~~~~~~~~~~~~~~~
   H.            +E   S  S
|--------------------------|
|-18------------(18)-15-18-|
|--------------------------|
|--------------------------|
|--------------------------|
|--------------------------|
|
|  ~~~
|  Q.     E H
|--------------------------|
|--------------------------|
|-10-----------------------|
|--------------------------|
|--------------------------|
|--------------------------|
|
|     PM|   PM-------|
|  E  E E E E E   E   E
|--------------------------|
|--------------------------|
|--3------3----------------|
|--3------3----------------|
|--1--1-1-1-1-1---1---1----|
|--------------------------|


         C5
   a       E   +E       +S   +S       +S   +S       +S   +S       +S   +S       +E   +E
|---------15--(15)-----(15)-(15)-----(15)-(15)-----(15)-(15)-----(15)-(15)-----(15)-(15)\-||
|-18b20==(18)r(18)b20==(18)r(18)b20==(18)r(18)b20==(18)r(18)b20==(18)r(18)b20==(18)r(18)\-||
|-----------------------------------------------------------------------------------------||
|-----------------------------------------------------------------------------------------||
|-----------------------------------------------------------------------------------------||
|-----------------------------------------------------------------------------------------||
|
|          W
|-----------------------------------------------------------------------------------------||
|-----------------------------------------------------------------------------------------||
|-----------------------------------------------------------------------------------------||
|-----------------------------------------------------------------------------------------||
|-----------------------------------------------------------------------------------------||
|-----------------------------------------------------------------------------------------||
|
|               PM-----|                             PM----------|
|          E    E        E             E             E             E             Q
|-----------------------------------------------------------------------------------------||
|-----------------------------------------------------------------------------------------||
|----------5---------------------------5-----------------------------------------5\-------||
|----------5---------------------------5-----------------------------------------5\-------||
|----------3----3--------3-------------3-------------3-------------3-------------3\-------||
|-----------------------------------------------------------------------------------------||


   Bridge
    B5              G5      A5        B5              A5
     H     Q   Q     Q   Q   Q   Q     H     Q   Q     W
||----------------|-----------------|---------------|-------|
||o---------------|-----------------|---------------|-------|
||----------------|-11---9----------|---------------|-------|
||---9----11--12--|---------12--11--|--9----11--12--|-11----|
||o---------------|-----------------|---------------|-------|
||----------------|-----------------|---------------|-------|
|
|    H     Q   Q     Q   Q   Q   Q     H     Q   Q     W
||----------------|-14--12----------|---------------|-------|
||o-12----14--15--|---------15--14--|-12----14--15--|-14----|
||----------------|-----------------|---------------|-------|
||----------------|-----------------|---------------|-------|
||o---------------|-----------------|---------------|-------|
||----------------|-----------------|---------------|-------|
|
|    W               H       H         W               W
||----------------|-----------------|---------------|-------|
||o---------------|-----------------|---------------|-------|
||---4------------|----------2------|--4------------|--2----|
||---4------------|--5-------2------|--4------------|--2----|
||o--2------------|--5-------0------|--2------------|--0----|
||----------------|--3--------------|---------------|-------|


  1.
  B5              G5      A5        G5              A5
   H     Q   Q     Q   Q   Q   Q     H     Q   Q     W
|---------------|-----------------|---------------|--------||
|---------------|-----------------|---------------|-------o||
|---------------|-11---9----------|--------9--11--|--9-----||
|--9----11--12--|---------12--11--|-12------------|--------||
|---------------|-----------------|---------------|-------o||
|---------------|-----------------|---------------|--------||
|
|  H     Q   Q     Q   Q   Q   Q     H     Q   Q     W
|---------------|-14--12----------|-------12--14--|-12-----||
|-12----14--15--|---------15--14--|-15------------|-------o||
|---------------|-----------------|---------------|--------||
|---------------|-----------------|---------------|--------||
|---------------|-----------------|---------------|-------o||
|---------------|-----------------|---------------|--------||
|
|  W               H       H         W               W
|---------------|-----------------|---------------|--------||
|---------------|-----------------|---------------|-------o||
|--4------------|----------2------|---------------|--2-----||
|--4------------|--5-------2------|--5------------|--2-----||
|--2------------|--5-------0------|--5------------|--0----o||
|---------------|--3--------------|--3------------|--------||


  2.
  B5              G5      A5        (G)                  A5           C5
   H     Q   Q     Q   Q   Q   Q     H        Q    Q      W
|---------------|-----------------|--------------------|-----------------||
|---------------|-----------------|--------------------|-----------------||
|---------------|-11---9----------|-----------9---11---|--9--------------||
|--9----11--12--|---------12--11--|-12-----------------|-----------------||
|---------------|-----------------|--------------------|-----------------||
|---------------|-----------------|--------------------|-----------------||
|
|  H     Q   Q     Q   Q   Q   Q     H        Q    Q      W
|---------------|-14--12----------|----------12---14---|-12--------------||
|-12----14--15--|---------15--14--|-15-----------------|-----------------||
|---------------|-----------------|--------------------|-----------------||
|---------------|-----------------|--------------------|-----------------||
|---------------|-----------------|--------------------|-----------------||
|---------------|-----------------|--------------------|-----------------||
|
|                                    PM--------------|      PM|   PM|
|  W               H       H         E E E E  E E  E E    E E E E E E Q
|---------------|-----------------|--------------------|-----------------||
|---------------|-----------------|--------------------|-----------------||
|--4------------|----------2------|--------------------|--2-----2-----5--||
|--4------------|--5-------2------|--------------------|--2-----2-----5--||
|--2------------|--5-------0------|--------------------|--0-0-0-0-0-0-3--||
|---------------|--3--------------|--3-3-3-3--3-3--3-3-|-----------------||


  (D)
 4/4
  Gtr I
  Q   q   E E E E   Q   E E E E E  E
|-----------------|------------------|
|-----3---5-6---8-|-----6---5-6---10-|
|-----2---2-2---5-|-----3---3-3----7-|
|-----------------|------------------|
|-----------------|------------------|
|-----------------|------------------|
|
| Gtr II
| PM----------------------------------
| E E E E E E E E   E E E E E E E  E
|-----------------|------------------|
|-----------------|------------------|
|-----------------|------------------|
|-0-0-0-0-0-0-0-0-|-0-0-0-0-0-0-0--0-|
|-----------------|------------------|
|-----------------|------------------|


  Q   E E E E E E   +Q    +E  E +H
|-----------------|-------------------------|
|-----8---6-5---6-|-(6)---(6)-3-(3)---------|
|-----5---5-5---3-|-(3)---(3)-0-(0)---------|
|-----------------|-------------------------|
|-----------------|-------------------------|
|-----------------|-------------------------|
|
|-------------------------------|
| E E E E E E E E    E  E  E  E  E  E +Q
|-----------------|-------------------------|
|-----------------|-------------------------|
|-----------------|-------------------------|
|-0-0-0-0-0-0-0-0-|--0--0--0--0--0--x-(x)\--|
|-----------------|-----------------x-(x)\--|
|-----------------|-------------------------|


                                                           D.S. al Coda
  (D)                                                            C5
  PM-----------------------------------------------------------|
  E E E E E E E E   E E E E E E E  E   E E E E E E E E    E  E E E +H
|-----------------|------------------|-----------------|------------------||
|-----------------|------------------|-----------------|------------------||
|-----------------|------------------|-----------------|---------5-(5)----||
|-0-0-0-0-0-0-0-0-|-0-0-0-0-0-0-0--0-|-0-0-0-0-0-0-0-0-|--0--0-0-5-(5)----||
|-----------------|------------------|-----------------|---------3-(3)----||
|-----------------|------------------|-----------------|------------------||
|
| Q   q   E E E E   Q   E E E E E  E   Q   E E E E E E   +Q.     E +H
|-----------------|------------------|-----------------|------------------||
|-----3---5-6---8-|-----6---5-6---10-|-----8---6-5---6-|-(6)-----8-(8)----||
|-----2---2-2---5-|-----3---3-3----7-|-----5---5-5---3-|-(3)-----5-(5)----||
|-----------------|------------------|-----------------|------------------||
|-----------------|------------------|-----------------|------------------||
|-----------------|------------------|-----------------|------------------||


 Outro
  &
    A5  C5    D5    Eb5   D5    C5    A5    C5    D5    Eb5   D5    C5
  Gtr I
      PM  PM|   PM    PM|   PM|   PM    PM|   PM|   PM    PM|   PM|
  E E E E E E E E   E E E E E E E E   E E E E E E E E   E E E E E E E E
|-----------------|-----------------|-----------------|-----------------|
|-----------------|-----------------|-----------------|-----------------|
|-0h2---5-----7---|-8-----7-----5---|-2-----5-----7---|-8-----7-----5-0-|
|-0h2---5-----7---|-8-----7-----5---|-2-----5-----7---|-8-----7-----5-0-|
|-----0---0-0---0-|---0-0---0-0---0-|---0-0---0-0---0-|---0-0---0-0-----|
|-----------------|-----------------|-----------------|-----------------|
|
| Gtr II
|     PM  PM|   PM    PM|   PM|   PM    PM|   PM|   PM    PM|   PM|
| E E E E E E E E   E E E E E E E E   E E E E E E E E   E E E E E E E E
|-----------------|-----------------|-----------------|-----------------|
|-----------------|-----------------|-----------------|-----------------|
|-0h2---5-----7---|-8-----7-----5---|-2-----5-----7---|-8-----7-----5-0-|
|-0h2---5-----7---|-8-----7-----5---|-2-----5-----7---|-8-----7-----5-0-|
|-----0---0-0---0-|---0-0---0-0---0-|---0-0---0-0---0-|---0-0---0-0-----|
|-----------------|-----------------|-----------------|-----------------|


    A5  C5    D5    Eb5   D5    C5      A5  C5    D5    Eb5   D5    C5
      PM  PM|   PM    PM|   PM|           PM  PM|   PM    PM|   PM|
  E E E E E E E E   E E E E E E E E   E E E E E E E E   E E E E E E E E
|-----------------|-----------------|-----------------|-----------------|
|-----------------|-----------------|-----------------|-----------------|
|-0h2---5-----7---|-8-----7-----5-0-|-0h2---5-----7---|-8-----7-----5-0-|
|-0h2---5-----7---|-8-----7-----5-0-|-0h2---5-----7---|-8-----7-----5-0-|
|-----0---0-0---0-|---0-0---0-0-----|-----0---0-0---0-|---0-0---0-0-----|
|-----------------|-----------------|-----------------|-----------------|
|
|     PM  PM|   PM    PM|   PM|           PM  PM|   PM    PM|   PM|
| E E E E E E E E   E E E E E E E E   E E E E E E E E   E E E E E E E E
|-----------------|-----------------|-----------------|-----------------|
|-----------------|-----------------|-----------------|-----------------|
|-0h2---5-----7---|-8-----7-----5-0-|-0h2---5-----7---|-8-----7-----5-0-|
|-0h2---5-----7---|-8-----7-----5-0-|-0h2---5-----7---|-8-----7-----5-0-|
|-----0---0-0---0-|---0-0---0-0-----|-----0---0-0---0-|---0-0---0-0-----|
|-----------------|-----------------|-----------------|-----------------|


    A5  C5    D5    Eb5   D5    C5      A5  C5   A5      C5     A5  C5
      PM  PM|   PM    PM|   PM|           PM       PM--|    PM    PM
  E E E E E E E E   E E E E E E E E   E E E Q  E E E   E Q  E E E E E
|-----------------|-----------------|----------------|----------------|
|-----------------|-----------------|----------------|----------------|
|-0h2---5-----7---|-8-----7-----5-0-|-0h2---5--0h2---|---5----0h2---5-|
|-0h2---5-----7---|-8-----7-----5-0-|-0h2---5--0h2---|---5----0h2---5-|
|-----0---0-0---0-|---0-0---0-0-----|-----0--------0-|-0----0-----0---|
|-----------------|-----------------|----------------|----------------|
|
|     PM  PM|   PM    PM|   PM|           PM       PM--|    PM    PM
| E E E E E E E E   E E E E E E E E   E E E Q  E E E   E Q  E E E E E
|-----------------|-----------------|----------------|----------------|
|-----------------|-----------------|----------------|----------------|
|-0h2---5-----7---|-8-----7-----5-0-|-0h2---5--0h2---|---5----0h2---5-|
|-0h2---5-----7---|-8-----7-----5-0-|-0h2---5--0h2---|---5----0h2---5-|
|-----0---0-0---0-|---0-0---0-0-----|-----0--------0-|-0----0-----0---|
|-----------------|-----------------|----------------|----------------|


                     C5 G5     A5
  +W           +Q.   Q  Q  E   E E Q  H
|------------|---------------|-------------*|
|------------|---------------|-------------*|
|-(5)--------|-(5)---5-------|-------------*|
|-(5)--------|-(5)---5--5--5-|-7-----------*|
|------------|-------3--5--5-|-7-----------*|
|------------|----------3--3-|-5-----------*|
|
| +W           +Q.   Q  Q  E   E E Q  H
|------------|---------------|-------------*|
|------------|---------------|-------------*|
|-(5)--------|-(5)---5--4--4-|-------------*|
|-(5)--------|-(5)---5--5--5-|-7-----------*|
|------------|---------------|-7-----------*|
|------------|---------------|-------------*|




--------------------------------------------------------------------------------


Duration Legend
---------------
W - whole; H - half; Q - quarter; E - 8th; S - 16th; T - 32nd; X - 64th; a - acciaccatura
+ - note tied to previous; . - note dotted; .. - note double dotted
Uncapitalized letters represent notes that are staccato (1/2 duration)
Irregular groupings are notated above the duration line
Duration letters will always appear directly above the note/fret number it represents the
duration for.  Duration letters with no fret number below them represent rests.  Multi-
bar rests are notated in the form Wxn, where n is the number of bars to rest for.  Low
melody durations appear below the staff

Tablature Legend
----------------
 h   - hammer-on
 p   - pull-off
 b   - bend
 pb  - pre-bend
 r   - bend release (if no number after the r, then release immediately)
 /\  - slide into or out of (from/to "nowhere")
 s   - legato slide
 S   - shift slide
 - natural harmonic
[n]  - artificial harmonic
n(n) - tapped harmonic
 ~   - vibrato
 tr  - trill
 T   - tap
 TP  - trem. picking
 PM  - palm muting
\n/  - tremolo bar dip; n = amount to dip
 \n  - tremolo bar down
 n/  - tremolo bar up
/n\  - tremolo bar inverted dip
 =   - hold bend; also acts as connecting device for hammers/pulls
 <> - volume swell (louder/softer)
 x   - on rhythm slash represents muted slash
 o   - on rhythm slash represents single note slash

Misc Legend
-----------
 |  - bar
||  - double bar
||o - repeat start
o|| - repeat end
*|  - double bar (ending)
 :  - bar (freetime)
 $  - Segno
 &  - Coda
Tempo markers -  = BPM(8/16=s8/s16), where s8 = swing 8ths, s16 = swing 16ths


            
            
Suggest correction
Creating personal tab
Creating personal tab
You can edit any tab online and save it as your Personal.

You can edit, replace or remove any tab part or add personal notes – all changes will be seen only by you.

Personal tabs can be accessed anytime from any device, even offline.
Learn more »
Give kudos to tab author, rate the tab!
1 2 3 4 5
comments
print report bad tab
guest
You may want to rate the tab now too:
select rating
Wanna post a correction for this tab? Suggest correction