Oops, an error
Loading. Please wait.

Ravenlord bass

version 1
version 1

Whole song

Interactive

241 views 1 this week
no commentswrite comment
1 2 3 4 5
3 more votes to show rating
add to favorites
×
Save as Personal and add changes to this tab that will be seen only by you. Learn more ›
×
You can save this tab as Personal to edit and correct it or add notes. All changes will be seen only by you. Learn more »
launch autoscroll
font size
0
reset
guitar tuner
edit
Autoscroll
slow
fast
+/-
esc
set tempo
stop
Ravenlord                                     

Transcribed by an unregistered user
HammerFall
Bass (D# G# C# F#)




       W                   W                 4x  E.  S E  E  E  S S S S S S  
F#||--------------------|--------------------||-----------------------------|
C#||*-------------------|-------------------*||-----------------------------|
G#||*-------------------|-------------------*||--5---5-3--5--L--5-5-7-7-8-8-|
D#||--------------------|--------------------||-----------------------------|


  E.  S E  E  Q    Q       E.  S E  E  E  S S S S S S  
------------------------|-----------------------------|
------------------------|-----------------------------|
--5---5-3--5--6----3----|--5---5-3--5--L--5-5-7-7-8-8-|
------------------------|-----------------------------|


  E  E  E  E  E  E  E  E     E.  S E  E  E  S S S S S S  
--------------------3-----|-----------------------------|
--------------------------|-----------------------------|
--5--5--3--1--L--1-----1--|--5---5-3--5--L--5-5-7-7-8-8-|
--------------------------|-----------------------------|


  E.  S E  E  Q    Q       E.  S E  E  E  S S S S S S    E  E  E  E  H         
------------------------|-----------------------------|-----------------------|
------------------------|-----------------------------|-----------------------|
--5---5-3--5--6----3----|--5---5-3--5--L--5-5-7-7-8-8-|--5--5--3--1--L--------|
------------------------|-----------------------------|-----------------------|


  H        E  E  E  E  E  E  Q       E  E  E  E  E  E  E  E   
----------------------------------|--------------------------|
----------------------------------|--------------------------|
--L--------1--1--1--1--1--3--L----|--5--5--5--5--5--5--5--5--|
----------------------------------|--------------------------|


  E  E  E  E  E  E  E  E     E  E  E  E  E  E  E  E   
--------------------------|--------------------------|
-----------------------3--|--------------------------|
--3--3--------------------|--5--5--5--5--5--5--5--1--|
--------1--3--L--3--5-----|--------------------------|


  E  E  E  E  E  E  E  E     E  E  E  E  E  E  E  E   
--------------------------|--------------------------|
--------------------------|--------------------------|
--3--3--3--3--3--3--3--3--|--5--5--5--5--5--5--5--5--|
--------------------------|--------------------------|


  E  E  E  E  E  E  E  E     E  E  E  E  E  E  E  E   
--------------------------|--------------------------|
-----------------------3--|--------------------------|
--3--3--------------------|--5--5--5--5--5--5--5--1--|
--------1--3--L--3--5-----|--------------------------|


  E  E  E  E  E  E  E  E     E.  S E  E  E  S S S S S S  
--------------------------|-----------------------------|
--------------------------|-----------------------------|
--3--3--3--3--3--3--3--3--|--5---5-3--5--L--5-5-7-7-8-8-|
--------------------------|-----------------------------|


  E.  S E  E  Q    Q       E.  S E  E  E  S S S S S S  
------------------------|-----------------------------|
------------------------|-----------------------------|
--5---5-3--5--6----3----|--5---5-3--5--L--5-5-7-7-8-8-|
------------------------|-----------------------------|


  E  E  E  E  E  E  E  E     E.  S E  E  E  S S S S S S  
--------------------3-----|-----------------------------|
--------------------------|-----------------------------|
--5--5--3--1--L--1-----1--|--5---5-3--5--L--5-5-7-7-8-8-|
--------------------------|-----------------------------|


  E.  S E  E  Q    Q       E.  S E  E  E  S S S S S S  
------------------------|-----------------------------|
------------------------|-----------------------------|
--5---5-3--5--6----3----|--5---5-3--5--L--5-5-7-7-8-8-|
------------------------|-----------------------------|


  E  E  E  E  E  E  E  E     E  E  E  E  E  E  E  E   
--------------------3-----|--------------------------|
--------------------------|--------------------------|
--5--5--3--1--L--1-----1--|--5--5--5--5--5--5--5--5--|
--------------------------|--------------------------|


  E  E  E  E  E  E  E  E     E  E  E  E  E  E  E  E   
--------------------------|--------------------------|
-----------------------3--|--------------------------|
--3--3--------------------|--5--5--5--5--5--5--5--1--|
--------1--3--L--3--5-----|--------------------------|


  E  E  E  E  E  E  E  E     E  E  E  E  E  E  E  E   
--------------------------|--------------------------|
--------------------------|--------------------------|
--3--3--3--3--3--3--3--3--|--5--5--5--5--5--5--5--5--|
--------------------------|--------------------------|


  E  E  E  E  E  E  E  E     E  E  E  E  E  E  E  E   
--------------------------|--------------------------|
-----------------------3--|--------------------------|
--3--3--------------------|--5--5--5--5--5--5--5--1--|
--------1--3--L--3--5-----|--------------------------|


  E  E  E  E  E  E  E  E     E  S S Q    E  S S Q        Q    Q    Q    Q     
--------------------------|--------------------------|-----------------------|
--------------------------|--------------------------|-----------------------|
--3--3--3--3--3--3--3--3--|---------7-----------7----|--10----9----5----7----|
--------------------------|--0--0-0------0--0-0------|-----------------------|


  E  S S Q    E  S S Q        Q    Q    Q    Q     
--------------------------|-----------------------|
--------------------------|-----------------------|
---------7-----------7----|--10----9----5----7----|
--0--0-0------0--0-0------|-----------------------|


  E  S S E  S S E  S S E  S S    E  S S E  S S E  S S E  S S  
------------------------------|------------------------------|
------------------------------|------------------------------|
--3--3-3-3--3-3-3--3-3-3--3-3-|--2--2-2-2--2-2-2--2-2-2--2-2-|
------------------------------|------------------------------|


  >        >        >           >                                              
  E  E  E  E  E  E  E  E     E  E  E  E  Q    Q       E  E  E  E  E  E  E  E   
--------------------------|------------------------|--------------------------|
--------------------------|------------------------|--------------------------|
--5--5--5--5--5--5--5--5--|--5--5--5--5--5----3----|--1--1--1--1--3--3--3--3--|
--------------------------|------------------------|--------------------------|


  E  E  E  E  Q    Q       E  E  E  E  E  E  E  E     E  E  E  E  Q    Q     
------------------------|--------------------------|------------------------|
------------------------|--------------------------|------------------------|
--3--5--5--5--5----7----|--8--8--8--8--3--3--3--3--|--5--5--5--5--5----3----|
------------------------|--------------------------|------------------------|


  E  E  E  E  E  E  E  E     E  E  E  E  Q    Q       E  E  E  E  E  E  E  E   
--------------------------|------------------------|--------------------------|
--------------------------|------------------------|--------------------------|
--1--1--1--1--3--3--3--3--|--3--5--5--5--5----7----|--8--8--8--8--1--1--1--1--|
--------------------------|------------------------|--------------------------|


  Q    Q    Q    E  E     E.  S E  E  E  S S S S S S    E.  S E  E  Q    Q     
-----------------------|-----------------------------|------------------------|
-----------------------|-----------------------------|------------------------|
--3--------------1--3--|--5---5-3--5--L--5-5-7-7-8-8-|--5---5-3--5--6----3----|
-----------------------|-----------------------------|------------------------|


  E.  S E  E  E  S S S S S S    E  E  E  E  E  E  E  E   
-----------------------------|--------------------3-----|
-----------------------------|--------------------------|
--5---5-3--5--L--5-5-7-7-8-8-|--5--5--3--1--L--1-----1--|
-----------------------------|--------------------------|


  E.  S E  E  E  S S S S S S    E.  S E  E  Q    Q     
-----------------------------|------------------------|
-----------------------------|------------------------|
--5---5-3--5--L--5-5-7-7-8-8-|--5---5-3--5--6----3----|
-----------------------------|------------------------|


  E.  S E  E  E  S S S S S S    E  E  E  E  E  E  E  E   
-----------------------------|--------------------3-----|
-----------------------------|--------------------------|
--5---5-3--5--L--5-5-7-7-8-8-|--5--5--3--1--L--1-----1--|
-----------------------------|--------------------------|


  E  E  E  E  E  E  E  E     E  E  E  E  E  E  E  E   
--------------------------|--------------------------|
--------------------------|-----------------------3--|
--5--5--5--5--5--5--5--5--|--3--3--------------------|
--------------------------|--------1--3--L--3--5-----|


  E  E  E  E  E  E  E  E     E  E  E  E  E  E  E  E   
--------------------------|--------------------------|
--------------------------|--------------------------|
--5--5--5--5--5--5--5--1--|--3--3--3--3--3--3--3--3--|
--------------------------|--------------------------|


  E  E  E  E  E  E  E  E     E  E  E  E  E  E  E  E   
--------------------------|--------------------------|
--------------------------|-----------------------3--|
--5--5--5--5--5--5--5--5--|--3--3--------------------|
--------------------------|--------1--3--L--3--5-----|


  E  E  E  E  E  E  E  E     E  E  E  E  E  E  E  E   
--------------------------|--------------------------|
--------------------------|--------------------------|
--5--5--5--5--5--5--5--1--|--3--3--3--3--3--3--3--3--|
--------------------------|--------------------------|


  E  S S Q    E  S S Q        Q    Q    Q    Q       E  S S Q    E  S S Q     
--------------------------|-----------------------|--------------------------|
--------------------------|-----------------------|--------------------------|
---------7-----------7----|--10----9----5----7----|---------7-----------7----|
--0--0-0------0--0-0------|-----------------------|--0--0-0------0--0-0------|


   Q    Q    Q    Q       E  S S E  S S E  S S E  S S  
-----------------------|------------------------------|
-----------------------|------------------------------|
--10----9----5----7----|--3--3-3-3--3-3-3--3-3-3--3-3-|
-----------------------|------------------------------|


                                 >        >        >      
  E  S S E  S S E  S S E  S S    E  E  E  E  E  E  E  E   
------------------------------|--------------------------|
------------------------------|--------------------------|
--2--2-2-2--2-2-2--2-2-2--2-2-|--5--5--5--5--5--5--5--5--|
------------------------------|--------------------------|


     >                                                                       
  E  E  E  E  Q    Q       E  E  E  E  E  E  E  E     E  E  E  E  Q    Q     
------------------------|--------------------------|------------------------|
------------------------|--------------------------|------------------------|
--5--5--5--5--5----3----|--1--1--1--1--3--3--3--3--|--3--5--5--5--5----7----|
------------------------|--------------------------|------------------------|


  E  E  E  E  E  E  E  E     E  E  E  E  Q    Q       E  E  E  E  E  E  E  E   
--------------------------|------------------------|--------------------------|
--------------------------|------------------------|--------------------------|
--8--8--8--8--3--3--3--3--|--5--5--5--5--5----3----|--1--1--1--1--3--3--3--3--|
--------------------------|------------------------|--------------------------|


  E  E  E  E  Q    Q       E  E  E  E  E  E  E  E     Q    Q    Q    E  E   
------------------------|--------------------------|-----------------------|
------------------------|--------------------------|-----------------------|
--3--5--5--5--5----7----|--8--8--8--8--1--1--1--1--|--3--------------3--5--|
------------------------|--------------------------|-----------------------|


  E  S S E  S S E  S S E  S S    E  S S E  S S E  S S E  S S  
------------------------------|------------------------------|
------------------------------|------------------------------|
--7--7-7-7--7-7-7--7-7-7--7-7-|--3--3-3-3--3-3-5--5-5-5--5-5-|
------------------------------|------------------------------|


  E  S S E   E  E  E   E  E     E  E  E  Q    E  Q     
-----------------------------|------------------------|
------------10--9--7---------|------------------------|
--7--7-7-7------------10--9--|--0--0--0--2----5--5----|
-----------------------------|------------------------|


  E  S S E  S S E  S S E  S S    E  S S E  S S E  S S E  S S  
------------------------------|------------------------------|
------------------------------|------------------------------|
--7--7-7-7--7-7-7--7-7-7--7-7-|--3--3-3-3--3-3-5--5-5-5--5-5-|
------------------------------|------------------------------|


  E  S S E   E  E  E   E  E     E  E  E  Q    E  Q     
-----------------------------|------------------------|
------------10--9--7---------|------------------------|
--7--7-7-7------------10--9--|--0--0--0--2----5--5----|
-----------------------------|------------------------|


  E  S S E  S S E  S S E  S S    E  S S E  S S E  S S E  S S  
------------------------------|------------------------------|
------------------------------|------------------------------|
--5--5-5-5--5-5-5--5-5-5--5-5-|--1--1-1-1--1-1-3--3-3-3--3-3-|
------------------------------|------------------------------|


  E  S S E  E  E  E  E  E     E  E  E  Q    E  Q     
---------------------------|------------------------|
------------8--7--5--------|------------------------|
--5--5-5-5-----------8--7--|----------------3--3----|
---------------------------|--3--3--3--5------------|


  E  S S E  S S E  S S E  S S    E  S S E  S S E  S S E  S S  
------------------------------|------------------------------|
------------------------------|------------------------------|
--5--5-5-5--5-5-5--5-5-5--5-5-|--1--1-1-1--1-1-3--3-3-3--3-3-|
------------------------------|------------------------------|


  E  S S E  E  E  E  E  E     E  E  E  Q    E  Q       W                 
---------------------------|------------------------|-------------------|
------------8--7--5--------|------------------------|-------------------|
--5--5-5-5-----------8--7--|----------------3--3----|-------------------|
---------------------------|--3--3--3--5------------|-------------------|


  W                   W                   W                 
-------------------|-------------------|-------------------|
-------------------|-------------------|-------------------|
-------------------|-------------------|-------------------|
-------------------|-------------------|-------------------|


  E  S S Q    E  S S Q        Q    Q    Q    Q       E  S S Q    E  S S Q     
--------------------------|-----------------------|--------------------------|
--------------------------|-----------------------|--------------------------|
---------7-----------7----|--10----9----5----7----|---------7-----------7----|
--0--0-0------0--0-0------|-----------------------|--0--0-0------0--0-0------|


   Q    Q    Q    Q       E  S S E  S S E  S S E  S S  
-----------------------|------------------------------|
-----------------------|------------------------------|
--10----9----5----7----|--3--3-3-3--3-3-3--3-3-3--3-3-|
-----------------------|------------------------------|


                                 >        >        >      
  E  S S E  S S E  S S E  S S    E  E  E  E  E  E  E  E   
------------------------------|--------------------------|
------------------------------|--------------------------|
--2--2-2-2--2-2-2--2-2-2--2-2-|--5--5--5--5--5--5--5--5--|
------------------------------|--------------------------|


     >                                                                       
  E  E  E  E  Q    Q       E  E  E  E  E  E  E  E     E  E  E  E  Q    Q     
------------------------|--------------------------|------------------------|
------------------------|--------------------------|------------------------|
--5--5--5--5--5----3----|--1--1--1--1--3--3--3--3--|--3--5--5--5--5----7----|
------------------------|--------------------------|------------------------|


  E  E  E  E  E  E  E  E     E  E  E  E  Q    Q       E  E  E  E  E  E  E  E   
--------------------------|------------------------|--------------------------|
--------------------------|------------------------|--------------------------|
--8--8--8--8--3--3--3--3--|--5--5--5--5--5----3----|--1--1--1--1--3--3--3--3--|
--------------------------|------------------------|--------------------------|


  E  E  E  E  Q    Q       E  E  E  E  E  E  E  E     Q    Q    Q    Q     
------------------------|--------------------------|----------------------|
------------------------|--------------------------|----------------------|
--3--5--5--5--5----7----|--8--8--8--8--1--1--1--1--|--3---------5----3----|
------------------------|--------------------------|----------------------|


  E  E  E  E  E  E  E  E     E  E  E  E  Q    Q       E  E  E  E  E  E  E  E   
--------------------------|------------------------|--------------------------|
--------------------------|------------------------|--------------------------|
--1--1--1--1--3--3--3--3--|--3--5--5--5--5----7----|--8--8--8--8--3--3--3--3--|
--------------------------|------------------------|--------------------------|


  E  E  E  E  Q    Q       E  E  E  E  E  E  E  E     E  E  E  E  H         
------------------------|--------------------------|-----------------------|
------------------------|--------------------------|-----------------------|
--5--5--5--5--5----3----|--1--1--1--1--3--3--3--3--|--3--5--5--5-----------|
------------------------|--------------------------|-----------------------|


  W                   H        E  E  E  E     Q    Q    Q    Q              
-------------------|-----------------------|----------------------||
-------------------|-----------------------|----------------------||
-------------------|-----------8--7--5-----|--5-------------------||
-------------------|--------------------8--|----------------------||




Duration Legend
---------------
W - whole
H - half
Q - quarter
E - 8th
S - 16th
T - 32nd
X - 64th
. - note dotted
|-n-|  - n-tuplets


Tablature Legend
----------------
L - tied note
x - dead note
g - grace note
(n) - ghost note
> - accentuded note
NH - natural harmonic
AH - artificial harmonic
TH - tapped harmonic
SH - semi harmonic
PH - pitch harmonic
h - hammer on
p - pull off
b - bend
br - bendRelease
pb - preBend
pbr - preBendRelease
brb - bendReleaseBend
\n/ - tremolo bar dip
\n - tremolo bar dive
-/n - tremolo bar Release up
/n\ - tremolo bar inverted dip
/n - tremolo bar return
-\n - tremolo bar Release down
S - shift slide
s - legato slide
/ -  slide into from below or out of upwards
\ -  slide into from above or out of downwards
~ - vibrato
W - wide vibrato
tr - trill
TP - tremolo picking
T - tapping
S - slap
P - pop
< - fade in
^ - brush up
v - brush down
  

            
            
Suggest correction
Creating personal tab
Creating personal tab
You can edit any tab online and save it as your Personal.

You can edit, replace or remove any tab part or add personal notes – all changes will be seen only by you.

Personal tabs can be accessed anytime from any device, even offline.
Learn more »
Give kudos to tab author, rate the tab!
1 2 3 4 5
comments
print report bad tab
guest
You may want to rate the tab now too:
select rating
Wanna post a correction for this tab? Suggest correction