Oops, an error
Loading. Please wait.

Trailblazers bass

version 1
version 1

Whole song

Interactive

465 views 3 this week
no commentswrite comment
1 2 3 4 5
2 more votes to show rating
add to favorites
×
Save as Personal and add changes to this tab that will be seen only by you. Learn more ›
×
You can save this tab as Personal to edit and correct it or add notes. All changes will be seen only by you. Learn more »
launch autoscroll
font size
0
reset
guitar tuner
edit
Autoscroll
slow
fast
+/-
esc
set tempo
stop
 Trailblazers                                   


Transcribed by  lintugirl                                                                      Hammerfall
Bass



       Q    Q    Q    Q       Q    Q    E  E  E  E     E  E  Q    Q    Q     
F#||-----------------------|------------------------|-----------------------|
C#||*----------------------|------------------------|-----------------------|
G#||*----------------------|------------3--2--0--2--|-----------------------|
D#||---0-------------------|------------------------|--0--------------------|


  H        H           E  E  Q    Q    Q       E  E  Q    E  E  E  E   
--------------------|-----------------------|-------------------------|
--------------------|-----------------------|-------------------------|
--3--------5--------|-----------------------|-------------3--2--0--2--|
--------------------|--0--------------------|-----0-------------------|


  E  E  Q    Q    Q       S S S S S S S S S S E  Q     
-----------------------|------------------------------|
-----------------------|------------------------------|
-----------------------|--3-3-3-3-3-3-3-3-5-----------|
--0--0-----------------|------------------------------|


    S S S S S S S S S S S S S S S S    S S S S S S S S Q    E  E   
|-----------------------------------|-----------------------------|
|*----------------------------------|-----------------------------|
|*--------------------------3-2-0---|------------------3----0--2--|
|---0-0-0-0-0-0-0-0-0-0-0-0-------3-|--0-0-0-0-0-0-0-0------------|


  S S S S S S S S S S S S S S S S    S S S S S S S S S S S S S S S S    
----------------------------------|-----------------------------------||
----------------------------------|----------------------------------*||
--------------------------3-2-0---|--3-3-3-3-3-3-3-3-5-5-5-5-5-5-5-5-*||
--0-0-0-0-0-0-0-0-0-0-0-0-------3-|-----------------------------------||


  W                   H.           S S S S    H.           S S S S  
-------------------|-----------------------|-----------------------|
-------------------|-----------------------|-----------------------|
-------------------|-----------------------|--3------------3-3-3-3-|
--0----------------|--3------------3-3-3-3-|-----------------------|


  H        Q    Q       H.           S S S S    H.           S S S S  
---------------------|-----------------------|-----------------------|
---------------------|-----------------------|-----------------------|
--5------------------|-----------------------|-----------------------|
-----------3----2----|--0------------0-0-0-0-|--3------------0-0-0-0-|


  W                   S S S S S S S S S S S S S S S S    W                 
-------------------|----------------------------------|-------------------|
-------------------|----------------------------------|-------------------|
--3----------------|--2-2-3-3-5-5-3-3-2-2-------------|-------------------|
-------------------|----------------------5-5-3-3-2-2-|--0----------------|


  H.           S S S S    H.           S S S S    H        Q    Q     
-----------------------|-----------------------|---------------------|
-----------------------|-----------------------|---------------------|
-----------------------|--3------------3-3-3-3-|--5------------------|
--3------------3-3-3-3-|-----------------------|-----------3----2----|


  W                   W                   H        H         
-------------------|-------------------|--------------------|
-------------------|-------------------|--------------------|
-------------------|--3----------------|--2--------2--------|
--0----------------|-------------------|--------------------|


  H        H           S S S S S S S S S S S S S S S S  
--------------------|----------------------------------|
--------------------|----------------------------------|
--2--------2--------|--3-3-3-3-3-3-3-3-3-3-3-3-3-3-3-3-|
--------------------|----------------------------------|


  S S S S S S S S S S S S S S S S    S S S S S S S S S S S S S S S S  
----------------------------------|----------------------------------|
----------------------------------|----------------------------------|
--0-0-0-0-0-0-0-0-0-0-0-0-0-0-0-0-|------------------2-2-2-2-2-2-2-2-|
----------------------------------|--3-3-3-3-3-3-3-3-----------------|


  |--3--|  |--3--|                                           
  E  E  E  E  E  E  H           E  S S E  S S E  S S E  S S  
-----------------------------|------------------------------|
-----------------------------|------------------------------|
--5--5--5--5--5--5--5--------|------------------------------|
-----------------------------|--0--0-0-0--0-0-0--0-0-0--0-0-|


  W                   E  S S E  S S E  S S E  S S    W                 
-------------------|------------------------------|-------------------|
-------------------|------------------------------|-------------------|
--3----------------|------------------------------|--5----------------|
-------------------|--0--0-0-0--0-0-0--0-0-0--0-0-|-------------------|


  E  S S E  S S E  S S E  S S    E  S S E  S S E  S S E  S S  
------------------------------|------------------------------|
------------------------------|------------------------------|
------------------------------|--2--2-2-2--2-2-2--2-2-2--2-2-|
--3--3-3-3--3-3-3--3-3-3--3-3-|------------------------------|


  H        Q    Q       E  S S E  S S E  S S E  S S    W                 
---------------------|------------------------------|-------------------|
-----------1----1----|------------------------------|-------------------|
--2------------------|------------------------------|-------------------|
---------------------|--0--0-0-0--0-0-0--0-0-0--0-0-|--0----------------|


  H.           S S S S    H.           S S S S    H        Q    Q     
-----------------------|-----------------------|---------------------|
-----------------------|-----------------------|---------------------|
-----------------------|--3------------3-3-3-3-|--5------------------|
--3------------3-3-3-3-|-----------------------|-----------3----2----|


  H.           S S S S    H.           S S S S    W                 
-----------------------|-----------------------|-------------------|
-----------------------|-----------------------|-------------------|
-----------------------|-----------------------|--3----------------|
--0------------0-0-0-0-|--3------------0-0-0-0-|-------------------|


  S S S S S S S S S S S S S S S S    W                   H.           S S S S  
----------------------------------|-------------------|-----------------------|
----------------------------------|-------------------|-----------------------|
--2-2-3-3-5-5-3-3-2-2-------------|-------------------|-----------------------|
----------------------5-5-3-3-2-2-|--0----------------|--3------------3-3-3-3-|


  H.           S S S S    H        Q    Q       W                 
-----------------------|---------------------|-------------------|
-----------------------|---------------------|-------------------|
--3------------3-3-3-3-|--5------------------|-------------------|
-----------------------|-----------3----2----|--0----------------|


  W                   H        H           H        H         
-------------------|--------------------|--------------------|
-------------------|--------------------|--------------------|
--3----------------|--2--------2--------|--2--------2--------|
-------------------|--------------------|--------------------|


  S S S S S S S S S S S S S S S S    S S S S S S S S S S S S S S S S  
----------------------------------|----------------------------------|
----------------------------------|----------------------------------|
--3-3-3-3-3-3-3-3-3-3-3-3-3-3-3-3-|--0-0-0-0-0-0-0-0-0-0-0-0-0-0-0-0-|
----------------------------------|----------------------------------|


                                     |--3--|  |--3--|            
  S S S S S S S S S S S S S S S S    E  E  E  E  E  E  H         
----------------------------------|-----------------------------|
----------------------------------|-----------------------------|
------------------2-2-2-2-2-2-2-2-|--5--5--5--5--5--5--5--------|
--3-3-3-3-3-3-3-3-----------------|-----------------------------|


  E  S S E  S S E  S S E  S S    W                 
------------------------------|-------------------|
------------------------------|-------------------|
------------------------------|--3----------------|
--0--0-0-0--0-0-0--0-0-0--0-0-|-------------------|


  E  S S E  S S E  S S E  S S    W                 
------------------------------|-------------------|
------------------------------|-------------------|
------------------------------|--5----------------|
--0--0-0-0--0-0-0--0-0-0--0-0-|-------------------|


  E  S S E  S S E  S S E  S S    E  S S E  S S E  S S E  S S  
------------------------------|------------------------------|
------------------------------|------------------------------|
------------------------------|--2--2-2-2--2-2-2--2-2-2--2-2-|
--3--3-3-3--3-3-3--3-3-3--3-3-|------------------------------|


  H        Q    Q       E  S S E  S S E  S S E  E   
---------------------|-----------------------------|
-----------1----1----|-----------------------------|
--2------------------|--------------------------5--|
---------------------|--0--0-0-0--0-0-0--0-0-0-----|


  E  S S E  S S E  S S E  S S    W                 
------------------------------|-------------------|
------------------------------|-------------------|
------------------------------|--3----------------|
--0--0-0-0--0-0-0--0-0-0--0-0-|-------------------|


  E  S S E  S S E  S S E  S S    W                 
------------------------------|-------------------|
------------------------------|-------------------|
------------------------------|--5----------------|
--0--0-0-0--0-0-0--0-0-0--0-0-|-------------------|


  E  S S E  S S E  S S E  S S    E  S S E  S S E  S S E  S S  
------------------------------|------------------------------|
------------------------------|------------------------------|
------------------------------|--2--2-2-2--2-2-2--2-2-2--2-2-|
--3--3-3-3--3-3-3--3-3-3--3-3-|------------------------------|


  H        Q    Q       W                   S S S S S S S S S S S S S S S S  
---------------------|-------------------|----------------------------------|
-----------1----1----|--2----------------|----------------------------------|
--2------------------|-------------------|--5-5-5-5-5-5-5-5-5-5-5-5-5-5-5-5-|
---------------------|-------------------|----------------------------------|


  S S S S S S S S S S S S S S S S    S S S S S S S S S S S S S S S S  
----------------------------------|----------------------------------|
------------------5-5-5-5-3-3-3-3-|----------------------------------|
--5-5-5-5-5-5-5-5-----------------|--3-3-3-3-3-3-3-3-3-3-3-3-3-3-3-3-|
----------------------------------|----------------------------------|


  S S S S S S S S S S S S S S S S    S S S S S S S S S S S S S S S S  
----------------------------------|----------------------------------|
--7-7-7-7-5-5-5-5-3-3-3-3-2-2-2-2-|----------------------------------|
----------------------------------|--5-5-5-5-5-5-5-5-5-5-5-5-5-5-5-5-|
----------------------------------|----------------------------------|


  S S S S S S S S S S S S S S S S    S S S S S S S S S S S S S S S S  
----------------------------------|----------------------------------|
------------------5-5-5-5-3-3-3-3-|----------------------------------|
--5-5-5-5-5-5-5-5-----------------|--3-3-3-3-3-3-3-3-3-3-3-3-3-3-3-3-|
----------------------------------|----------------------------------|


  S S S S S S S S S S S S S S S S      W                 
----------------------------------||--------------------|
--7-7-7-7-5-5-5-5-3-3-3-3-2-2-2-2-||*-------------------|
----------------------------------||*--5----------------|
----------------------------------||--------------------|


  S S S S S S S S S S S S S S S S    W                 
--3-3-3-3-2-2-2-2-0-0-0-0---------|-------------------|
--------------------------3-3-3-3-|-------------------|
----------------------------------|--3----------------|
----------------------------------|-------------------|


  S S S S S S S S S S S S S S S S      W                   H.           Q     
--2-2-2-2-0-0-0-0------------------||-------------------|--------------------|
------------------3-3-3-3-2-2-2-2-*||-------------------|--------------------|
----------------------------------*||-------------------|--------------------|
-----------------------------------||--1----------------|--L------------0----|


  W                   H.           Q       W                 
-------------------|--------------------|-------------------|
-------------------|--------------------|-------------------|
-------------------|--------------------|--1----------------|
--0----------------|--L------------3----|-------------------|


                                          |--3--|  |--3--|            
  W                   W                   E  E  E  E  E  E  H         
-------------------|-------------------|-----------------------------|
-------------------|-------------------|-----------------------------|
--3----------------|--5----------------|--5--5--5--5--5--5--5--------|
-------------------|-------------------|-----------------------------|


  Q    H.              W                   Q    H.            
--------------------|-------------------|--------------------|
--------------------|-------------------|--------------------|
--------------------|-------------------|--------------------|
--0-----------------|--3----------------|--0-----------------|


  W                   W                   W                 
-------------------|-------------------|-------------------|
-------------------|-------------------|-------------------|
--5----------------|-------------------|--2----------------|
-------------------|--3----------------|-------------------|


  H        Q    Q       Q    H.              E  S S E  S S E  S S E  S S  
---------------------|--------------------|------------------------------|
-----------1----1----|--------------------|------------------------------|
--2------------------|--------------------|------------------------------|
---------------------|--0-----------------|--0--0-0-0--0-0-0--0-0-0--0-0-|


  W                   E  S S E  S S E  S S E  S S    W                 
-------------------|------------------------------|-------------------|
-------------------|------------------------------|-------------------|
--3----------------|------------------------------|--5----------------|
-------------------|--0--0-0-0--0-0-0--0-0-0--0-0-|-------------------|


  E  S S E  S S E  S S E  S S    E  S S E  S S E  S S E  S S  
------------------------------|------------------------------|
------------------------------|------------------------------|
------------------------------|--2--2-2-2--2-2-2--2-2-2--2-2-|
--3--3-3-3--3-3-3--3-3-3--3-3-|------------------------------|


  H        Q    Q       H.           Q       S S S S S S S S S S S S S S S S  
---------------------|--------------------|----------------------------------|
-----------1----1----|--------------------|----------------------------------|
--2------------------|--------------------|----------------------------------|
---------------------|--0------------0----|--0-0-0-0-0-0-0-0-0-0-0-0-0-0-0-0-|


  W                   S S S S S S S S S S S S S S S S    W                 
-------------------|----------------------------------|-------------------|
-------------------|----------------------------------|-------------------|
--3----------------|----------------------------------|--5----------------|
-------------------|--0-0-0-0-0-0-0-0-0-0-0-0-0-0-0-0-|-------------------|


  S S S S S S S S S S S S S S S S    S S S S S S S S S S S S S S S S  
----------------------------------|----------------------------------|
----------------------------------|----------------------------------|
----------------------------------|--2-2-2-2-2-2-2-2-2-2-2-2-2-2-2-2-|
--3-3-3-3-3-3-3-3-3-3-3-3-3-3-3-3-|----------------------------------|


  S S S S S S S S S S S S S S S S    S S S S S S S S E  E  Q     
----------------------------------|-----------------------------|
------------------1-1-1-1-4-4-4-4-|--2-2-2-2-2-2-2-2-2----------|
--2-2-2-2-2-2-2-2-----------------|-----------------------------|
----------------------------------|-----------------------------|


    S S S S S S S S S S S S S S S S    S S S S S S S S Q    E  E   
|-----------------------------------|-----------------------------|
|*----------------------------------|-----------------------------|
|*--------------------------3-2-0---|------------------3----0--2--|
|---0-0-0-0-0-0-0-0-0-0-0-0-------3-|--0-0-0-0-0-0-0-0------------|


  S S S S S S S S S S S S S S S S    S S S S S S S S S S S S S S S S    
----------------------------------|-----------------------------------||
----------------------------------|----------------------------------*||
--------------------------3-2-0---|--3-3-3-3-3-3-3-3-5-5-5-5-5-5-5-5-*||
--0-0-0-0-0-0-0-0-0-0-0-0-------3-|-----------------------------------||


  S S S S S S S S E  E  Q       E  E  Q    H          
-----------------------------|----------------------||
-----------------------------|----------------------||
--3-3-3-3-3-3-3-3-5----------|--5-------------------||
-----------------------------|-------------0--------||




Duration Legend
---------------
W - whole
H - half
Q - quarter
E - 8th
S - 16th
T - 32nd
X - 64th
. - note dotted
|-n-|  - n-tuplets


Tablature Legend
----------------
L - tied note
x - dead note
g - grace note
(n) - ghost note
> - accentuded note
NH - natural harmonic
AH - artificial harmonic
TH - tapped harmonic
SH - semi harmonic
PH - pitch harmonic
h - hammer on
p - pull off
b - bend
br - bendRelease
pb - preBend
pbr - preBendRelease
brb - bendReleaseBend
\n/ - tremolo bar dip
\n - tremolo bar dive
-/n - tremolo bar Release up
/n\ - tremolo bar inverted dip
/n - tremolo bar return
-\n - tremolo bar Release down
S - shift slide
s - legato slide
/ -  slide into from below or out of upwards
\ -  slide into from above or out of downwards
~ - vibrato
W - wide vibrato
tr - trill
TP - tremolo picking
T - tapping
S - slap
P - pop
< - fade in
^ - brush up
v - brush down

            
            
Suggest correction
Creating personal tab
Creating personal tab
You can edit any tab online and save it as your Personal.

You can edit, replace or remove any tab part or add personal notes – all changes will be seen only by you.

Personal tabs can be accessed anytime from any device, even offline.
Learn more »
Give kudos to tab author, rate the tab!
1 2 3 4 5
comments
print report bad tab
guest
You may want to rate the tab now too:
select rating
Wanna post a correction for this tab? Suggest correction