Oops, an error
Loading. Please wait.

Colourblind tab

version 1
version 1

Whole song

Interactive

3,970 views 9 this week
1 commentread comment
1 2 3 4 5
x 7
add to favorites
×
Save as Personal and add changes to this tab that will be seen only by you. Learn more ›
×
You can save this tab as Personal to edit and correct it or add notes. All changes will be seen only by you. Learn more »
launch autoscroll
font size
0
reset
how to read this tab
guitar tuner
edit
Autoscroll
slow
fast
+/-
esc
set tempo
stop
Tabbed by: jcameronp
Tuning: Drop B
Guitar 1 - Lead
Guitar 2 - Rhythm

[Intro]
(Guitar 1)
C#|---8-5---8-5-3------------------------------------------------------------|
G#|--------------------------------------------------------------------------|
 E|-7-----7------------------------------------------------------------------|
 B|--------------------------------------------------------------------------|
F#|--------------------------------------------------------------------------|
 B|--------------------------------------------------------------------------|

[Guitar 2]
C#|------------------------------------------------------------------------------|
G#|------------------------------------------------------------------------------|
 E|------------------------------------------------------------------------------|
 B|------------------------------------------------------------------------------|
F#|------------------------------------------------------------------------------|
 B|-0-0-0-0-0-0-0-0-0-8-8-8-0-0-0-3-3-3-10-10-0-0-0-0-0-0-0-0-0-8-8-8-0-0-0------|

C#|--------------------------------------------------------------------------|
G#|--------------------------------------------------------------------------|
 E|--------------------------------------------------------------------------|
 B|--------------------------------------------------------------------------|
F#|--------------------------------------------------------------------------|
 B|-5-5-5-5-10-10-10-10------------------------------------------------------|

[Verse 1]
(Guitar 1 - right channel)
C#|--------------------------------------------------------------------------|
G#|--------------------------------------------------------17/18-------------|
 E|-14-10-14-9~-----14-10-14-10---12-10-12-10-----14-10h14-------------------|
 B|--------------------------------------------------------------------------|
F#|--------------------------------------------------------------------------|
 B|--------------------------------------------------------------------------|

C#|--------------------------------------------------------------------------|
G#|----------18----------15/17-----------------------------------------------|
 E|-14-10-14----12-10h12-----------------------------------------------------|
 B|--------------------------------------------------------------------------|
F#|--------------------------------------------------------------------------|
 B|--------------------------------------------------------------------------|

[Guitar 2]  
(left channel)
C#|--------------------------------------------------------------------------|
G#|---------------------------------17/18~-----17/18~-----15/17~-------------|
 E|-9~----------9-------12-12-7~---------------------------------------------|
 B|--------------------------------------------------------------------------|
F#|----------8-----8-8-------------------------------------------------------|
 B|--------8-----------8-----------------------------------------------------|

[Pre-Chorus] x2
((Guitar 1) (comes in when rhythm is playing 5s))
C#|--------------------------------------------------------------------------|
G#|-18-18-18-18-18-18-18-18-18-18-18-18-18-18-18-18--------------------------|
 E|--------------------------------------------------------------------------|
 B|--------------------------------------------------------------------------|
F#|--------------------------------------------------------------------------|
 B|--------------------------------------------------------------------------|
Guitar 2 (up and down strumming)                                               
C#|--------------------------------------------------------------------------|
G#|--------------------------------------------------------------------------|
 E|--------------------------------------------------------------------------| 
 B|-8-------5-------0-------10-----------------------------------------------| 
F#|-8-(x16)-5-(x16)-0-(x16)-10-(x16)-----------------------------------------|
 B|-8-------5-------0-------10-----------------------------------------------|
   
[Chorus]
(Guitar 1) 
C#|--------------------------------------------------------------------------|
G#|----------13------------13-13---------------------------------------------|
 E|----14------------14----------9-9-9-9b-9b-9b-9-9-9-9b-9b-9b---------------|
 B|-12----12------12----12---------------------------------------------------| 
F#|--------------------------------------------------------------------------|
 B|--------------------------------------------------------------------------|

C#|--------------------------------------------------------------------------|
G#|----------13----------15-13-----------------------------------------------|
 E|----14----------14----------9-9-9-9b-9b-9b-9-9-9-9b-9b-9b-----------------|
 B|-12----12----12----12-----------------------------------------------------|
F#|--------------------------------------------------------------------------|
 B|--------------------------------------------------------------------------|

[Guitar 2]
C#|--------------------------------------------------------------------------|
G#|--------------------------------------------------------------------------|
 E|--------------------------------------------------------------------------|
 B|-8------0------10-------7------8------0------10---------------------------|
F#|-8-(x8)-0-(x8)-10-(x12)-7-(x4)-8-(x8)-0-(x8)-10-(x12)---------------------|
 B|-8------0------10-------7------8------0------10---------------------------|

[Postchorus / break]
(Guitar 1)
C#|---8-5---8-5-3------------------------------------------------------------|
G#|--------------------------------------------------------------------------|
 E|-7-----7------------------------------------------------------------------|
 B|--------------------------------------------------------------------------|
F#|--------------------------------------------------------------------------|
 B|--------------------------------------------------------------------------|

[Guitar 2]
C#|------------------------------------------------------------------------------|
G#|------------------------------------------------------------------------------|
 E|------------------------------------------------------------------------------|
 B|------------------------------------------------------------------------------|
F#|------------------------------------------------------------------------------|
 B|-0-0-0-0-0-0-0-0-0-8-8-8-0-0-0-3-3-3-10-10-0-0-0-0-0-0-0-0-0-8-8-8-0-0-0------|

C#|--------------------------------------------------------------------------|
G#|--------------------------------------------------------------------------|
 E|--------------------------------------------------------------------------|
 B|--------------------------------------------------------------------------|
F#|--------------------------------------------------------------------------|
 B|-5-5-5-5-10-10-10-10------------------------------------------------------|

[Verse 2]
((Guitar 2 - left channel (no guitar 1))
C#|--------------------------------------------------------------------------|
G#|--------------------------------------------------------------------------|
 E|--------9~---------5~----------7------------------------------------------|
 B|-------------------3~-----------------------------------------------------|
F#|-----8----------8-----------10--------------------------------------------|
 B|---8----------8--------8/10-----------------------------------------------|

C#|--------------------------------------------------------------------------|
G#|--------------------------------------------------------------------------|
 E|--------9~---------5~----------7h9----------------------------------------|
 B|-------------------3~-----------------------------------------------------|
F#|-----8----------8-----------10--------------------------------------------|
 B|---8----------8--------8/10-----------------------------------------------|

[Pre-Chorus] x2
((Guitar 1 (comes in when rhythm is playing 5s))
C#|--------------------------------------------------------------------------|
G#|-18-18-18-18-18-18-18-18-18-18-18-18-18-18-18-18--------------------------|
 E|--------------------------------------------------------------------------|
 B|--------------------------------------------------------------------------|
F#|--------------------------------------------------------------------------|
 B|--------------------------------------------------------------------------|

Guitar 2 (up and down strumming)                                               
C#|--------------------------------------------------------------------------|
G#|--------------------------------------------------------------------------|
 E|--------------------------------------------------------------------------| 
 B|-8-------5-------0-------10-----------------------------------------------| 
F#|-8-(x16)-5-(x16)-0-(x16)-10-(x16)-----------------------------------------|
 B|-8-------5-------0-------10-----------------------------------------------|
 
[Chorus]
(Guitar 1) 
C#|--------------------------------------------------------------------------|
G#|----------13------------13-13---------------------------------------------|
 E|----14------------14----------9-9-9-9b-9b-9b-9-9-9-9b-9b-9b---------------|
 B|-12----12------12----12---------------------------------------------------| 
F#|--------------------------------------------------------------------------|
 B|--------------------------------------------------------------------------|

C#|--------------------------------------------------------------------------|
G#|----------13----------15-13-----------------------------------------------|
 E|----14----------14----------9-9-9-9b-9b-9b-9-9-9-9b-9b-9b-----------------|
 B|-12----12----12----12-----------------------------------------------------|
F#|--------------------------------------------------------------------------|
 B|--------------------------------------------------------------------------|

[Guitar 2]
C#|--------------------------------------------------------------------------|
G#|--------------------------------------------------------------------------|
 E|--------------------------------------------------------------------------|
 B|-8------0------10-------7------8------0------10---------------------------|
F#|-8-(x8)-0-(x8)-10-(x12)-7-(x4)-8-(x8)-0-(x8)-10-(x12)---------------------|
 B|-8------0------10-------7------8------0------10---------------------------|

[Bridge]
(Guitar 1 + 2)
C#|--------------------------------------------------------------------------|
G#|-6----------6----------6----------6---------------------------------------|
 E|-x-5-3------x-5-3------x-5-3------x-5-3-----------------------------------|
 B|-3-x-x-0----3-x-x-0----3-x-x-0----3-x-x-0---------------------------------|
F#|---3-1-x------3-1-x------3-1-x------3-1-x---------------------------------|
 B|-------0----------0----------0----------0---------------------------------|

[Breakdown]
(Guitar 1 + 2)
C#|--------------------------------------------------------------------------------------------------|
G#|--------------------------------------------------------------------------------------------------|
 E|--------------------------------------------------------------------------------------------------|
 B|--------------------------------------------------------------------------------------------------|
F#|-0-0-0-0-0~-0-0~-0-0~-0-0~-0-0-0-0-0-0-0-0~-0-0-0~-0-0-0~-0-0-0~-0-0~-0-0~-0-0~-0-0-0-0-0-0-0-0~--|
 B|-0-0-0-0-0~-0-0~-0-0~-0-0~-0-0-0-0-0-0-0-0~-0-0-0~-0-0-0~-0-0-0~-0-0~-0-0~-0-0~-0-0-0-0-0-0-0-0~--|
    
C#|-----------------------------------------------------------------------------|
G#|-----------------------------------------------------------------------------|
 E|-----------------------------------------------------------------------------|
 B|-----------------------------------------------------------------------------|
F#|-0-0-0-0-13/12-00-13/12-00-13/12-00-00-8-8-8-8-7-7-7-7-13-13-13-13-13-00-1---|
 B|-0-0-0-0-13/12-00-13/12-00-13/12-00-00-8-8-8-8-7-7-7-7-13-13-13-13-13-00-1---|
   
C#|--------------------------------------------------------------------------|
G#|--------------------------------------------------------------------------|
 E|--------------------------------------------------------------------------|
 B|--------------------------------------------------------------------------|
F#|-13p0-0-13-13-0-00-8-8-8-8-7-7-7-7----------------------------------------|
 B|-13p0-0-13-13-0-00-8-8-8-8-7-7-7-7----------------------------------------|
         
[Pre-Chorus]
((Guitar 1 - right channel (comes in after guitar 2's first part))
C#|-------------------------------------17-17-17--17--17--17-17-17--17--17---|
G#|-18-18-18--18--18--18-18-18--18--18---------------------------------------|
 E|--------------------------------------------------------------------------|
 B|--------------------------------------------------------------------------|
F#|--------------------------------------------------------------------------|
 B|--------------------------------------------------------------------------|

C#|--------------------------------------------------------------------------|
G#|-17-17-17--17--17--17--13-13-13--13--13--13h15----------------------------|
 E|--------------------------------------------------------------------------|
 B|--------------------------------------------------------------------------|
F#|--------------------------------------------------------------------------|
 B|--------------------------------------------------------------------------|

[Guitar 2 - left channel]
(first part)
C#|--------------------------------------------------------------------------|
G#|-18-18-18-18-18-18-18-18-17-17-17-17-17-17-17-17-15-15-15-15-15-15-15-15--|
 E|--------------------------------------------------------------------------|
 B|--------------------------------------------------------------------------|
F#|--------------------------------------------------------------------------|
 B|--------------------------------------------------------------------------|

C#|--------------------------------------------------------------------------|
G#|-15-15-15-15-15-15-15-15--------------------------------------------------|
 E|--------------------------------------------------------------------------|
 B|--------------------------------------------------------------------------|
F#|--------------------------------------------------------------------------|
 B|--------------------------------------------------------------------------|

(second part)
C#|--------------------------------------------------------------------------|
G#|-18-18-18-18-18-18-18-18-17-17-17-17-17-17-17-17-15-15-15-15-15-15-15-15--|
 E|--------------------------------------------------------------------------|
 B|--------------------------------------------------------------------------|
F#|--------------------------------------------------------------------------|
 B|--------------------------------------------------------------------------|

C#|--------------------------------------------------------------------------|
G#|-20~----------------------------------------------------------------------|
 E|--------------------------------------------------------------------------|
 B|--------------------------------------------------------------------------|
F#|--------------------------------------------------------------------------|
 B|--------------------------------------------------------------------------|

[Chorus]
(Guitar 1) 
C#|--------------------------------------------------------------------------|
G#|----------13------------13-13---------------------------------------------|
 E|----14------------14----------9-9-9-9b-9b-9b-9-9-9-9b-9b-9b---------------|
 B|-12----12------12----12---------------------------------------------------| 
F#|--------------------------------------------------------------------------|
 B|--------------------------------------------------------------------------|

C#|--------------------------------------------------------------------------|
G#|----------13----------15-13-----------------------------------------------|
 E|----14----------14----------9-9-9-9b-9b-9b-9-9-9-9b-9b-9b-----------------|
 B|-12----12----12----12-----------------------------------------------------|
F#|--------------------------------------------------------------------------|
 B|--------------------------------------------------------------------------|

[Guitar 2]
C#|--------------------------------------------------------------------------|
G#|--------------------------------------------------------------------------|
 E|--------------------------------------------------------------------------|
 B|-8------0------10-------7------8------0------10-------7-------------------|
F#|-8-(x8)-0-(x8)-10-(x12)-7-(x4)-8-(x8)-0-(x8)-10-(x12)-7-(x4)--------------|
 B|-8------0------10-------7------8------0------10-------7-------------------|

[Outro]
(Guitar 1)
C#|---8-5---8-5-3------------------------------------------------------------|
G#|--------------------------------------------------------------------------|
 E|-7-----7------------------------------------------------------------------|
 B|--------------------------------------------------------------------------|
F#|--------------------------------------------------------------------------|
 B|--------------------------------------------------------------------------|
   
[Guitar 2]
C#|--------------------------------------------------------------------------|
G#|--------------------------------------------------------------------------|
 E|--------------------------------------------------------------------------|   (played all the way through
 B|--------------------------------------------------------------------------|   twice)
F#|--------------------------------------------------------------------------|
 B|-0-0-0-00-00-0-0-8-8-8-0-0-0-3-3-3-10-10-0-0-0-00-00-0-0-8-8-8-0-0-0------|

C#|--------------------------------------------------------------------------|
G#|--------------------------------------------------------------------------|
 E|--------------------------------------------------------------------------|
 B|--------------------------------------------------------------------------|
F#|--------------------------------------------------------------------------|
 B|-5-5-5-5-10-10-10-10------------------------------------------------------|



************************************

| /  Slide up
| h  Hammer-on
| ~  Vibrato
| b  Bend
| x  Dead note
| p  Pull-off

************************************

            
            
Suggest correction
Creating personal tab
Creating personal tab
You can edit any tab online and save it as your Personal.

You can edit, replace or remove any tab part or add personal notes – all changes will be seen only by you.

Personal tabs can be accessed anytime from any device, even offline.
Learn more »
comments
print report bad tab
1 comment total.
+1 reply
regionalatbestx 93 Feb 10, 2016 02:57 PM

Beautifully done and really easy to understand! Thanks a bunch.

guest
You may want to rate the tab now too:
select rating
Wanna post a correction for this tab? Suggest correction