Oops, an error
Loading. Please wait.

Nervous Nightmare tab

43 views 3 this week
no commentswrite comment
1 2 3 4 5
2 more votes to show rating
add to favorites
×
Save as Personal and add changes to this tab that will be seen only by you. Learn more ›
×
You can save this tab as Personal to edit and correct it or add notes. All changes will be seen only by you. Learn more »
launch autoscroll
font size
0
reset
how to read this tab
guitar tuner
edit
Autoscroll
slow
fast
+/-
esc
set tempo
stop
Author
Difficulty
About this tab version
The only tab for this song that I know of. Needed to be done lol 100% correct as far as i can tell. Was this info helpful? Yes No
BAND: Handy with Shovels - Song: Nervous Nightmare
ALBUM: One of These Days.... ( http://www.cdbaby.com/cd/handywithshovels )

From the skate video: Planet Earth - Now 'n' Later - Brian Lotti's section - 1991.

E-A-D-G-B-e Standard tuning. just going to put the power chords. 

For rhythm, please listen to the song here:  https://www.youtube.com/watch?v=x_W10ott3Js

[INTRO] (0 - 8 seconds)
e|------------------------------------|
B|------------------------------------|
G|---------7-----------------5--------|
D|7--------7--------5--------5--------|   x1
A|7--------5--------5--------3--------|
E|5-----------------3-----------------|

[VERSE]   Sipping coffee on my patio.....  (9 - 48 seconds)
e|---------------------------------------------------------------------------|
B|---------------------------------------------------------------------------|
G|9- ------7--------9--------7--------5---7---9--------5---7---9-------------|
D|9 -------7--------9--------7--------5---7---9--------5---7---9-------------|   x4
A|7--------5--------7--------5--------3---5---7--------3---5---7-------------|
E|---------------------------------------------------------------------------|

[CHORUS]   I hate this dream..... (49 - 58 seconds)
e|---------------------------------------------------------------------------|
B|---------------------------------------------------------------------------|
G|---------7-----------------5-----------------7-----------------4-4-4-------|
D|7--------7--------5--------5--------7--------7--------5---4--2-4-4-4-------|   x1
A|7--------5--------5--------3--------7--------5--------5---4--2-2-2-2-------|
E|5-----------------3-----------------5-----------------3---2--0-------------|

[SLOW BIT] (59 - 1.33 minutes)
e|------------------------------------|
B|------------------------------------|
G|5--------7--------9-----------------|
D|5--------7--------9-----------------|   x5
A|3--------5--------7-----------------|
E|------------------------------------|

[VERSE]   Sipping coffee on my patio..... (1.34 - 1.53 minutes)
e|---------------------------------------------------------------------------|
B|---------------------------------------------------------------------------|
G|9--------7--------9--------7--------5---7---9--------5---7---9-------------|
D|9--------7--------9--------7--------5---7---9--------5---7---9-------------|   x4
A|7--------5--------7--------5--------3---5---7--------3---5---7-------------|
E|---------------------------------------------------------------------------|

[OUTRO] (1.54 - 2.03 minutes)
e|---------------------------------------------------------------------------|
B|---------------------------------------------------------------------------|
G|---------7-----------------5----------------7-----------------5---5--------|
D|7--------7--------5--------5--------7-------7--------5--------5-5-5-5------|   x1
A|7--------5--------5--------3--------7-------5--------5--------3-5-3-5------|
E|5-----------------3-----------------5----------------3----------3---3------|

(2.04 - END)
e|---------------------------------------------------------------------------|
B|---------------------------------------------------------------------------|
G|---------7-----------------5-----------------5-----------------4-4-4-------|
D|7--------7--------5--------5--------7--------5--------5---4--2-4-4-4-------|   x3
A|7--------5--------5--------3--------7--------3--------5---4--2-2-2-2-------|
E|5-----------------3-----------------5-----------------3---2--0-------------|

--- THE END ---

Tabbed by mdfk79. 06/01/17

            
            
Suggest correction
Creating personal tab
Creating personal tab
You can edit any tab online and save it as your Personal.

You can edit, replace or remove any tab part or add personal notes – all changes will be seen only by you.

Personal tabs can be accessed anytime from any device, even offline.
Learn more »
Give kudos to tab author, rate the tab!
1 2 3 4 5
comments
print report bad tab
guest
You may want to rate the tab now too:
select rating
Wanna post a correction for this tab? Suggest correction