Oops, an error
Loading. Please wait.

Just Like You tab

version 1
version 1

Whole song

Interactive

3,248 views 1 this week
no commentswrite comment
1 2 3 4 5
3 more votes to show rating
add to favorites
×
Save as Personal and add changes to this tab that will be seen only by you. Learn more ›
×
You can save this tab as Personal to edit and correct it or add notes. All changes will be seen only by you. Learn more »
launch autoscroll
font size
0
reset
how to read this tab
guitar tuner
edit
Autoscroll
slow
fast
+/-
esc
set tempo
stop
Author
Difficulty
Ok well i just made this tab by ear and it sounds pretty close to perfect when played
the original song. I just made this because i noticed there isn't a "just like you" guitar
on this site yet. I matched the lyrics up with the tab. The order of the song is at the 
i haven't marked where to palm mute but if you listen to the original song
can probably figure it out easily:) (0=open) Good Luck! :)

Intro/Verse
  (Part 1)              (Part 2)
E---------------------------------------------------------|
B---------------------------------------------------------|
G---------------------------------------------------------|
D-9999-9999-7777-7777---11-11-11-11-11-11-11-11-9999-9999-|
A-7777-7777-0000-0000----9--9--9--9--9--9--9--9-7777-7777-|
E---------------------------------------------------------|
  so what you see...     if you only knew...

(Repeat part 1 until you reach "if you only knew.")

Bridge
E-----------------------------------------|
B-----------------------------------------|
G-----------------------------------------|
D-9999-9999-----------9999-9999-----------|
A-7777-7777-9999-9999-7777-7777-9999-9999-|
E-----------7777-7777-----------7777-7777-|
  it's a crazy life...

Chorus 1
E-------------------------------------------------------|
B-------------------------------------------------------|
G-------------------------------------------------------|
D-9999-9999---------------------------------------------|
A-7777-7777-11-11-11-11-11-11-11-11-9999-9999-9999-9999-|
E------------9--9--9--9--9--9--9--9-7777-7777-7777-7777-|
  I've got everything...

(Play this 2 times until "I'm a lucky girl.")

Chorus 2
E---------------------------------------|
B---------------------------------------|
G---------------------------------------|
D-7-7----------6-6-4444-444-6666-6666---|
A-5-5-7777-777-4-4-2222-222-4444-4444-7-|
E-----5555-555------------------------5-|
  i'm a lucky girl...

Climax
E-------------------------------------------------|
B-------------------------------------------------|
G-------------------------------------------------|
D-------------------------------------------------|
A-7777-9999-11-11-11-11-9999-------------------14-|
E-5555-7777--9--9--9--9-7777-------------------12-|
  you-u-u-u-u...                               who i am...

(Repeat until "who i am.")

Order of song:
Verse part 1/part 2
Bridge
Chorus 1
Chorus 2
Verse part 1/part 2
Bridge
Chorus 1
Chorus 2
Climax
Chorus 1
Chorus 2
Chorus 1
Chorus 2

            
            
Suggest correction
Creating personal tab
Creating personal tab
You can edit any tab online and save it as your Personal.

You can edit, replace or remove any tab part or add personal notes – all changes will be seen only by you.

Personal tabs can be accessed anytime from any device, even offline.
Learn more »
Give kudos to tab author, rate the tab!
1 2 3 4 5
comments
print report bad tab
guest
You may want to rate the tab now too:
select rating
Wanna post a correction for this tab? Suggest correction